Cifras e Tablaturas
Nívea Soares

Nívea Soares

Em Tua Presença

Cifras Cancelar Versão de Impressão

Nívea Soares - Em Tua Presença

Tom: G

  			Introdução: 
 
E|---------------------------------------------------------------------------------------------| 
B|--------3----------3--------------3---------3------------------------------------------------| 
G|------0-----0---0------0--------0-----0---0-------0------------------------------------------| 
D|----0-----0---0------0--------0-----0---0-------0--------------------------------------------| 
A|---------------------------------------------------------------------------------------------| 
E|-3------------------------3------------------------------------------------------------------| 



              C9 
E|---------------------------------------------------------------------------------------------| 
B|-------3-----------------3------------------3------------------3-----------------------------| 
G|-----0----------0-----0---------0---------0-----------0-----0---------2----------------------| 
D|---2---------2---- 2---------2----------2----------2-----2---------0-------------------------| 
A|-3------------------------------------3------------------------------------------------------| 
E|---------------------------------------------------------------------------------------------| 



              Am                          Em 
E|---------------------------------------------------------------------------------------------| 
B|-------1----------------0------------------0----------------0--------------------------------| 
G|-----0---------0-----0---------0---------0---------0-----0---------0-------------------------| 
D|---2--------2-----2---------2----------2--------2-----2---------2----------------------------| 
A|-0-------------------------------------------------------------------------------------------| 
E|------------------------------------0--------------------------------------------------------| 



              C9 
E|---------------------------------------------------------------------------------------------| 
B|-------3-----------------3------------------3-----------------3------------------------------| 
G|-----0----------0-----0---------0---------0----------0-----0----------0----------------------| 
D|---2---------2-----2----------2---------2---------2-----2----------2-------------------------| 
A|-3------------------------------------3------------------------------------------------------| 
E|---------------------------------------------------------------------------------------------|  



1° solo base: C Am Em7 D 
 


E|--------------15-15-15-14-14-14------------------------------------------------------------- 
B|--15/17-17-17------------------------------------------------------------------------------- 
G|--------------------------------16-16-16-16-16-16/------------------------------------------ 
D|-------------------------------------------------------------------------------------------- 
A|-------------------------------------------------------------------------------------------- 
E|-------------------------------------------------------------------------------------------- 

E|-----------15-15-15-14-14-14---------------------------------------------------------------- 
B|-/17-17-17-------------------------------------------------15-------------15---------------- 
G|-----------------------------14-14-14-14-14-14-14-14h16-16----16-14h16-16----16-14h16-14/--- 
D|-------------------------------------------------------------------------------------------- 
A|-------------------------------------------------------------------------------------------- 
E|-------------------------------------------------------------------------------------------- 

E|-------------------------------------------------------------------------------------------- 
B|-------------------------------------15-15-15/---------------------------------------------- 
G|-11-11-11-12-12-12-14-14-14-16-16-16-------------------------------------------------------- 
D|-------------------------------------------------------------------------------------------- 
A|-------------------------------------------------------------------------------------------- 
E|-------------------------------------------------------------------------------------------- 

E|--------------15-15-15-14-14-14------------------------------------------------------------- 
B|--15/17-17-17------------------------------------------------------------------------------- 
G|--------------------------------16-16-16-16-16-16/------------------------------------------ 
D|-------------------------------------------------------------------------------------------- 
A|-------------------------------------------------------------------------------------------- 
E|-------------------------------------------------------------------------------------------- 

E|-----------15-15-15-14-14-14---------------------------------------------------------------- 
B|-/17-17-17-------------------------------------------------15-------------15---------------- 
G|-----------------------------14-14-14-14-14-14-14-14h16-16----16-14h16-16----16-14h16-14/--- 
D|-------------------------------------------------------------------------------------------- 
A|-------------------------------------------------------------------------------------------- 
E|-------------------------------------------------------------------------------------------- 

E|-------------------------------------------------------------------------------------------- 
B|-------------------------------------------------------------------------------------------- 
G|-11-11--11-12-9-7--------------------------------------------------------------------------- 
D|-------------------------------------------------------------------------------------------- 
A|-------------------------------------------------------------------------------------------- 
E|-------------------------------------------------------------------------------------------- 


2º Solo base: C Am Em7 D 

 

E|--------------15-15-15-14-14-14------------------------------------------------------------- 
B|--15/17-17-17------------------------------------------------------------------------------- 
G|--------------------------------16-16-16-16-16-16/------------------------------------------ 
D|-------------------------------------------------------------------------------------------- 
A|-------------------------------------------------------------------------------------------- 
E|-------------------------------------------------------------------------------------------- 

E|-----------15-15-15-14-14-14---------------------------------------------------------------- 
B|-/17-17-17-------------------------------------------------15-------------15---------------- 
G|-----------------------------14-14-14-14-14-14-14-14h16-16----16-14h16-16----16-14h16-14/--- 
D|-------------------------------------------------------------------------------------------- 
A|-------------------------------------------------------------------------------------------- 
E|-------------------------------------------------------------------------------------------- 

E|-------------------------------------------------------------------------------------------- 
B|-------------------------------------15-15-15/---------------------------------------------- 
G|-11-11-11-12-12-12-14-14-14-16-16-16-------------------------------------------------------- 
D|-------------------------------------------------------------------------------------------- 
A|-------------------------------------------------------------------------------------------- 
E|-------------------------------------------------------------------------------------------- 

E|--------------15-15-15-14-14-14------------------------------------------------------------- 
B|--15/17-17-17------------------------------------------------------------------------------- 
G|--------------------------------16-16-16-16-16-16/------------------------------------------ 
D|-------------------------------------------------------------------------------------------- 
A|-------------------------------------------------------------------------------------------- 
E|-------------------------------------------------------------------------------------------- 

E|-----------15-15-15-14-14-14---------------------------------------------------------------- 
B|-/17-17-17-------------------------------------------------15-------------15---------------- 
G|-----------------------------14-14-14-14-14-14-14-14h16-16----16-14h16-16----16-14h16-14/--- 
D|-------------------------------------------------------------------------------------------- 
A|-------------------------------------------------------------------------------------------- 
E|-------------------------------------------------------------------------------------------- 

E|--------------------------------------19-20-19-17-19-0-0-19-0-0-19-0-0-19-0-0--------------- 
B|-------------------------------------------------------------------------------------------- 
G|-11-11--11-12-12-12-14-14-14-16-16-16------------------------------------------------------- 
D|-------------------------------------------------------------------------------------------- 
A|-------------------------------------------------------------------------------------------- 
E|-------------------------------------------------------------------------------------------- 

E|-19-20-19-17-19-0-0-19-0-0-19-0-0-19-0-0---------------------------------------------------- 
B|-------------------------------------------------------------------------------------------- 
G|-------------------------------------------------------------------------------------------- 
D|-------------------------------------------------------------------------------------------- 
A|-------------------------------------------------------------------------------------------- 
E|-------------------------------------------------------------------------------------------- 

E|-19-20-19-17-19-0-0-17-0-0-15-0-0-17-0-0-19-0-17-0-14-0-0-15-0-0-17-0-0-19-0-0-------------- 
B|-------------------------------------------------------------------------------------------- 
G|-------------------------------------------------------------------------------------------- 
D|-------------------------------------------------------------------------------------------- 
A|-------------------------------------------------------------------------------------------- 
E|-------------------------------------------------------------------------------------------- 

E|-19-20-19-17-19-0-0-19-0-0-19-0-0-19-0-0---------------------------------------------------- 
B|-------------------------------------------------------------------------------------------- 
G|-------------------------------------------------------------------------------------------- 
D|-------------------------------------------------------------------------------------------- 
A|-------------------------------------------------------------------------------------------- 
E|-------------------------------------------------------------------------------------------- 

E|-19-20-19-17-19-0-0-19-0-0-19-0-0-19-0-0---------------------------------------------------- 
B|-------------------------------------------------------------------------------------------- 
G|-------------------------------------------------------------------------------------------- 
D|-------------------------------------------------------------------------------------------- 
A|-------------------------------------------------------------------------------------------- 
E|-------------------------------------------------------------------------------------------- 


E|-19-20-19-17-19-0-0-17-0-0-15-0-0-17-0-0-19-0-17-0-14-0-0-15-0-0-17-0-0-19------------------ 
B|-------------------------------------------------------------------------------------------- 
G|-------------------------------------------------------------------------------------------- 
D|-------------------------------------------------------------------------------------------- 
A|-------------------------------------------------------------------------------------------- 
E|-------------------------------------------------------------------------------------------- 
    	
fixar
fixar inscrever-se

enviado porenviado por: flyerdk
cifra enviadaCorrigida por: sem correções
logo top cifrasComente
ico música do artistaMúsicas deste artista
ico curtiuCurtiu?
ico destaqueDestaque
Petaxxon Comunicação Online

Cifras.com.br - Melhor e mais completo site de cifras e tablaturas do Brasil Mais de 1 milhão de acordes de músicas cadastradas desde 2003
As informações contidas no nosso site são colaborações de seus usuários e podem conter erros, sendo assim, não nos responsabilizamos sobre nenhuma destas.

close
menos
mais
close
Cor dos acordes:

Cor da letra:

close
Alinhar acordes a direita Alinhar acordes a esquerda Alinhar acordes em baixo Alinhar acordes no topo
close
  Mostrar todos os acordes Esconder acordes muito fáceis Esconder acordes fáceis Esconder acordes intermediários
redimensionar
glossário