Cifras e Tablaturas
Niykee Heaton

Niykee Heaton

Bad Intentions

Cifras Cancelar Versão de Impressão
cifras

Niykee Heaton - Bad Intentions

fixar na tela  
Exibindo: vídeo-aula ver clipes redimensionar
  Intro 

    Em7                  Bm7    D              G 
e|---------------------------------------------------------------------------| 
B|----------8h10p8----8p7-7~----7~-----------------------7h8p7----8----------| 
G|------7----------7------7~----7~--------7---------7----------7-------------| 
D|----9---9---------------7~----7~--------7-------9---9----------------------| 
A|--7---------------------9~----5~----7h9---9--10----------------------------| 
E|------------------------7~-------------------------------------------------| 
   
    Em7   Bm7   D     G 
e|---7-----7----7-----7--------------| 
B|---8-----7----7-----8--------------| 
G|---7-----7----7-----7--------------| 
D|---9-----7----7-----9--------------| 
A|---7-----9----5----10--------------| 
E|---------7-------------------------|  
  

cifra enviadasem correções
enviado porenviada por:educastilho
top 5 | niykee heaton
top rock'n roll
Outras músicas do artista letras do(a) Niykee Heaton
3.
King
Top cifras »Top artistas »
Petaxxon Comunicação Online
Cifras.com.br - Melhor e mais completo site de cifras e tablaturas do Brasil
Mais de 1 milhão de acordes de músicas cadastradas desde 2003
As informações contidas no nosso site são colaborações de seus usuários e podem conter erros, sendo assim, não nos responsabilizamos sobre nenhuma destas.
close
menos
mais
close
Cor dos acordes:

Cor da letra:

 

save
close
close
 
redimensionar