Cifras e Tablaturas
Cifras Cancelar Versão de Impressão
cifras

No Use For a Name - Noitall

fixar na tela  
Exibindo: vídeo-aula ver clipes redimensionar

Tom:

F#

ver outros tons
  
Intro 
e|-----------------------------------------------------------------| 
B|-----------------------------------------------------------------| 
G|----------4-4-6-6-7-7-6-6-4-4----------------4-4-6-6-7-7-6-6-4-4-| 
D|-6----6-6-4-4-6-6-7-7-6-6-4-4--6-6-6-6---6-6-4-4-6-6-7-7-6-6-4-4-| x4 
A|-6----6-6-2-2-4-4-5-5-4-4-2-2--6-6-6-6---6-6-2-2-4-4-5-5-4-4-2-2-| 
E|-4----4-4----------------------4-4-4-4---4-4---------------------| 

Transition 
e|---| 
B|---| 
G|---| 
D|-6-| 
A|-6-| 
E|-4-| 

Verse 
e|--------------------------| 
B|--------------------------| 
G|--------6----9-9-9--------| 
D|-4-4--4-6-6--9-9-9-9-10-9-| x6 
A|-4-4--4-4-6--7-7-7-9-10-9-| 
E|-2-2--2---4--------7-8--7-| 

Chorus 
e|-------------------------------------------------------------------| 
B|-------------------------------------------------------------------| 
G|-----------------7-7-7-7-7-7-7-7-7---------------------------------| 
D|-4-4-4-4-4-4-4-4-7-7-7-7-7-7-7-7-7-4-4-4-4-4-4-4-4-2-2-2-2-2-2-2-2-|  
A|-4-4-4-4-4-4-4-4-5-5-5-5-5-5-5-5-5-4-4-4-4-4-4-4-4-2-2-2-2-2-2-2-2-| 
E|-2-2-2-2-2-2-2-2-------------------2-2-2-2-2-2-2-2-0-0-0-0-0-0-0-0-| 

Chorus 
e|----------------------------------------------------------------------------| 
B|----------------------------------------------------------------------------| 
G|-----------------7-7-7-7-7-7-7-7-7------------------------------------------| 
D|-4-4-4-4-4-4-4-4-7-7-7-7-7-7-7-7-7-4-4-4-4-4-4-4-4-2-2-2-2-2-2-2-2--2-2-2-4-|  
A|-4-4-4-4-4-4-4-4-5-5-5-5-5-5-5-5-5-4-4-4-4-4-4-4-4-2-2-2-2-2-2-2-2--2-2-2-4-| 
E|-2-2-2-2-2-2-2-2-------------------2-2-2-2-2-2-2-2-0-0-0-0-0-0-0-0--0-0-0-2-| 

End of Chorus 
e|-------------------------------------------| 
B|-------------------------------------------| 
G|-------------------------------------------| 
D|--------------------------------------4--4-| 
A|---8-----7-----6-----5-----4-----3----4--4-| 
E|-8---8-7---7-6---6-5---5-4---4-3---3--2--2-| 

Verse 
e|--------------------------| 
B|--------------------------| 
G|--------6----9-9-9--------| 
D|-4-4--4-6-6--9-9-9-9-10-9-| x4 
A|-4-4--4-4-6--7-7-7-9-10-9-| 
E|-2-2--2---4--------7-8--7-| 

Chorus 
e|-------------------------------------------------------------------| 
B|-------------------------------------------------------------------| 
G|-----------------7-7-7-7-7-7-7-7-7---------------------------------| 
D|-4-4-4-4-4-4-4-4-7-7-7-7-7-7-7-7-7-4-4-4-4-4-4-4-4-2-2-2-2-2-2-2-2-|  
A|-4-4-4-4-4-4-4-4-5-5-5-5-5-5-5-5-5-4-4-4-4-4-4-4-4-2-2-2-2-2-2-2-2-| 
E|-2-2-2-2-2-2-2-2-------------------2-2-2-2-2-2-2-2-0-0-0-0-0-0-0-0-| 

Chorus 
e|----------------------------------------------------------------------------| 
B|----------------------------------------------------------------------------| 
G|-----------------7-7-7-7-7-7-7-7-7------------------------------------------| 
D|-4-4-4-4-4-4-4-4-7-7-7-7-7-7-7-7-7-4-4-4-4-4-4-4-4-2-2-2-2-2-2-2-2--2-2-2-4-|  
A|-4-4-4-4-4-4-4-4-5-5-5-5-5-5-5-5-5-4-4-4-4-4-4-4-4-2-2-2-2-2-2-2-2--2-2-2-4-| 
E|-2-2-2-2-2-2-2-2-------------------2-2-2-2-2-2-2-2-0-0-0-0-0-0-0-0--0-0-0-2-| 

End of Chorus 
e|-------------------------------------------| 
B|-------------------------------------------| 
G|-------------------------------------------| 
D|--------------------------------------4--4-| 
A|---8-----7-----6-----5-----4-----3----4--4-| 
E|-8---8-7---7-6---6-5---5-4---4-3---3--2--2-| 

Verse 
e|--------------------------| 
B|--------------------------| 
G|--------6----9-9-9--------| 
D|-4-4--4-6-6--9-9-9-9-10-9-| x4 
A|-4-4--4-4-6--7-7-7-9-10-9-| 
E|-2-2--2---4--------7-8--7-| 

Chorus 
e|-------------------------------------------------------------------| 
B|-------------------------------------------------------------------| 
G|-----------------7-7-7-7-7-7-7-7-7---------------------------------| 
D|-4-4-4-4-4-4-4-4-7-7-7-7-7-7-7-7-7-4-4-4-4-4-4-4-4-2-2-2-2-2-2-2-2-|  
A|-4-4-4-4-4-4-4-4-5-5-5-5-5-5-5-5-5-4-4-4-4-4-4-4-4-2-2-2-2-2-2-2-2-| 
E|-2-2-2-2-2-2-2-2-------------------2-2-2-2-2-2-2-2-0-0-0-0-0-0-0-0-| 

Chorus 
e|----------------------------------------------------------------------------| 
B|----------------------------------------------------------------------------| 
G|-----------------7-7-7-7-7-7-7-7-7------------------------------------------| 
D|-4-4-4-4-4-4-4-4-7-7-7-7-7-7-7-7-7-4-4-4-4-4-4-4-4-2-2-2-2-2-2-2-2--2-2-2-4-|  
A|-4-4-4-4-4-4-4-4-5-5-5-5-5-5-5-5-5-4-4-4-4-4-4-4-4-2-2-2-2-2-2-2-2--2-2-2-4-| 
E|-2-2-2-2-2-2-2-2-------------------2-2-2-2-2-2-2-2-0-0-0-0-0-0-0-0--0-0-0-2-| 

End of Chorus 
e|-------------------------------------------| 
B|-------------------------------------------| 
G|-------------------------------------------| 
D|--------------------------------------4--4-| 
A|---8-----7-----6-----5-----4-----3----4--4-| 
E|-8---8-7---7-6---6-5---5-4---4-3---3--2--2-| 

End with F#5 
  

top 5 | no use for a name
top punk rock
Outras músicas do artista letras do(a) No Use For a Name
Top cifras »Top artistas »
Petaxxon Comunicação Online
Cifras.com.br - Melhor e mais completo site de cifras e tablaturas do Brasil
Mais de 1 milhão de acordes de músicas cadastradas desde 2003
As informações contidas no nosso site são colaborações de seus usuários e podem conter erros, sendo assim, não nos responsabilizamos sobre nenhuma destas.
close
menos
mais
close
Cor dos acordes:

Cor da letra:

 

save
close
close
 
redimensionar