Cifras e Tablaturas
Noah Gundersen

Noah Gundersen

Time Moves Quickly

Cifras Cancelar Versão de Impressão
cifras

Noah Gundersen - Time Moves Quickly

fixar na tela  
Exibindo: vídeo-aula ver clipes redimensionar
  Intro 
             C                C              C                  C 
e|----------0-0-------------0-1-0-----------0-0---------------------------------------| 
B|--------1-----3---------1---------------1-----3---------------1---------------------| 
G|------0---------------0---------------0-------------------0-------0-----------------| 
D|----2---------------2---------------2-----------------2-----------------------------| 
A|--3---------------3---------------3---------------3---------------------------------| 
E|------------------------------------------------------------------------------------| 

Chorus 
Time moves quickly, With or without me   You go fast, and I'll go slow 
             C                C              C                  C 
e|----------0-0-------------0-1-0-----------0-0---------------------------------------| 
B|--------1-----3---------1---------------1-----3---------------1---------------------| 
G|------0---------------0---------------0-------------------0-------0-----------------| 
D|----2---------------2---------------2-----------------2-----------------------------| 
A|--3---------------3---------------3---------------3---------------------------------| 
E|------------------------------------------------------------------------------------| 

Verse 
I don't like you, Don't even want to   But I can't let you go 
             C                C              C                  C 
e|----------0-0-------------0-1-0-----------0-0---------------------------------------| 
B|--------1-----3---------1---------------1-----3---------------1---------------------| 
G|------0---------------0---------------0-------------------0-------0-----------------| 
D|----2---------------2---------------2-----------------2-----------------------------| 
A|--3---------------3---------------3---------------3---------------------------------| 
E|------------------------------------------------------------------------------------| 

Verse 
But in these pictures, I can't not hear her   And all I see is all I know 
            Am                C              Am                  C 
e|----------0-0-------------0-1-0-------------0-0-------------------------------------| 
B|--------1-----3---------1-------3---------1-----3---------------1-------------------| 
G|------2---------------0-----------------2-------------------0-------0---------------| 
D|----2---------------2-----------------2-----------------2---------------------------| 
A|--0---------------3-----------------0---------------3-------------------------------| 
E|------------------------------------------------------------------------------------| 

Chorus 
Time moves quickly, With or without me   You go fast, and I'll go slow 
             C                C              C                  C 
e|----------0-0-------------0-1-0-----------0-0---------------------------------------| 
B|--------1-----3---------1---------------1-----3---------------1---------------------| 
G|------0---------------0---------------0-------------------0-------0-----------------| 
D|----2---------------2---------------2-----------------2-----------------------------| 
A|--3---------------3---------------3---------------3---------------------------------| 
E|------------------------------------------------------------------------------------| 

Verse 
You stick with me,  You never even kissed me   But I can't let you go 
             C                C              C                  C 
e|----------0-0-------------0-1-0-----------0-0---------------------------------------| 
B|--------1-----3---------1---------------1-----3---------------1---------------------| 
G|------0---------------0---------------0-------------------0-------0-----------------| 
D|----2---------------2---------------2-----------------2-----------------------------| 
A|--3---------------3---------------3---------------3---------------------------------| 
E|------------------------------------------------------------------------------------| 

Outro  
            Am                C              Am                  C 
e|----------0-0-------------0-1-0-------------0-0-------------------------------------| 
B|--------1-----3---------1-------3---------1-----3---------------1-------------------| 
G|------2---------------0-----------------2-------------------0-------0---------------| 
D|----2---------------2-----------------2-----------------2---------------------------| 
A|--0---------------3-----------------0---------------3-------------------------------| 
E|------------------------------------------------------------------------------------| 

             C                C              C                  C 
e|----------0-0-------------0-1-0-----------0-0---------------------------------------| 
B|--------1-----3---------1---------------1-----3---------------1---------------------| 
G|------0---------------0---------------0-------------------0-------0-----------------| 
D|----2---------------2---------------2-----------------2-----------------------------| 
A|--3---------------3---------------3---------------3---------------------------------| 
E|------------------------------------------------------------------------------------| 
  

cifra enviadasem correções
enviado porenviada por:jessgomes
top 5 | noah gundersen
top rock alternativo
Outras músicas do artista letras do(a) Noah Gundersen
Top cifras »Top artistas »
Petaxxon Comunicação Online
Cifras.com.br - Melhor e mais completo site de cifras e tablaturas do Brasil
Mais de 1 milhão de acordes de músicas cadastradas desde 2003
As informações contidas no nosso site são colaborações de seus usuários e podem conter erros, sendo assim, não nos responsabilizamos sobre nenhuma destas.
close
menos
mais
close
Cor dos acordes:

Cor da letra:

 

save
close
close
 
redimensionar