Cifras e Tablaturas
Norma Jean

Norma Jean

Forever Hurtling Towards Andromeda

Cifras Cancelar Versão de Impressão
cifras

Norma Jean - Forever Hurtling Towards Andromeda

fixar na tela  
Exibindo: vídeo-aula ver clipes redimensionar
  
Tuning: Drop C 

Guitar 1: Left Stereo 
Guitar 2: Right Stereo 

SECTION 1 

Both Guitars 
D|--------------------------| 
A|--------------------------| 
F|---------3--------------3-| 
C|-2-----0----------2---0---|x2 
G|-3-00001--------003-001---| 
C|-2-00000----5b--002-000---| 
     ....         ..  .. 

Guitar 1 
D|-----------------------------------------------------------0---0-------------0-| 
A|-----------------------------------------------------------0---0-------------0-| 
F|---------3--------------3----------3-----------------------0---0-------------0-| 
C|-2-----0----------2---0----2-----0---------------------------8---8---5\--------| 
G|-3-00001--------003-001----3-00001--------00-----------------8---8-0-x--0000---| 
C|-2-00000----5b--002-000----2-00000----5b--00-2-5-3-6-5v-8b---8---8-0-5\-0000---| 
||   ....         ..  ..       ....         ..                       .    ....   | 
Guitar 2                                                                         | 
D|-----------------------------------------------------------0---0-------------0-| 
A|---------3-------------------------3-----------------------0---0-------------0-| 
F|------------------------3----------------------------------0---0-------------0-| 
C|-2-----0----------2---0----2-----0---------------------------8---8---5\--------| 
G|-3-00001--------003-001----3-00001--------00-----------------8---8-0-x--0000---| 
C|-2-00000----5b--002-000----2-00000----5b--00-2-5-3-6-5v-8b---8---8-0-5\-0000---| 
     ....         ..  ..       ....         ..                       .    .... 

SECTION 2 

Both Guitars 
D|------------------------------------| 
A|-8888--88-----------8888--88--------| 
F|-0000--00-----------0000--00--------| 
C|-----8---8-6--5b6r5-----8---8-5b6r5-|x4 
G|-----x---x-x--x---------x---x-x-----| 
C|-----8---8-6--5b6r5-----8---8-5b6r5-| 

SECTION 3 

Both Guitars 
D|------------------------------------------------------| 
A|------------------------------------------------------| 
F|-2-4---4--2-4---4--2-4----2-4---4--2-4----------------| 
C|-3-5---5--3-5---5--3-5----3-5---5--3-5--1-1-1-1-1-1-1-| 
G|-3-5---5--3-5---5--3-5----3-5---5--3-5--1-1-1-1-1-1-1-| 
C|-3-5---5--3-5---5--3-5----3-5---5--3-5--1-1-1-1-1-1-1-| 

D|--------------------------------------------------------------| 
A|--------------------------------------------------------------| 
F|-2-4---4--2-4---4--2-4----2-4---4--2-4------------------------| 
C|-3-5---5--3-5---5--3-5----3-5---5--3-5--1-1-1-1-1-1-1-1-1-1-1-| 
G|-3-5---5--3-5---5--3-5----3-5---5--3-5--1-1-1-1-1-1-1-1-1-1-1-| 
C|-3-5---5--3-5---5--3-5----3-5---5--3-5--1-1-1-1-1-1-1-1-1-1-1-| 

SECTION 4 

Guitar 1 
D|--------------------------------------------------------------------| 
A|------11-----------11-----------11-------11----------11---15-15-15\-| 
F|-10h12----12--10h12----12--10h12----10h12----12-10h12--12--x--x--x--| 
C|----------------------------------------------------------13-13-13\-| 
G|--------------------------------------------------------------------| 
C|--------------------------------------------------------------------| 
||                                                                 | 
Guitar 2                                                           | 
D|-----------------------------------------------------------------| 
A|-----------------------------------------------------------------| 
F|-----------------------------------------------------------------| 
C|-----------------------------------------------------------------| 
G|-----------------------------------------------------------------| 
C|-1-1-1-1-1-1-1-1-1s4-4-4-4-4-4-4-4s5-5-5-5-5-5-5-5-0-4-0-0-0-0-0-| 

Guitar 1 
D|------------------------------------------------------------------------------| 
A|------11-----------11-----------11-------11-----------11-11-11-11-11-11-11-11-| 
F|-10h12----12--10h12----12--10h12----10h12----12-10h12-12-12-12-12-12-12-12-12-| 
C|------------------------------------------------------------------------------| 
G|------------------------------------------------------------------------------| 
C|------------------------------------------------------------------------------| 
||                                                                     | 
Guitar 2                                                               | 
D|---------------------------------------------------------------------| 
A|---------------------------------------------------------------------| 
F|---------------------------------------------------------------------| 
C|---------------------------------------------------------------------| 
G|---------------------------------------------------------------------| 
C|-1-1-1-1-1-1-1-1-1s4-4-4-4-4-4-4-4s5-5-5-5-5-5-5-5-5-5-5-5b-5b-5b-5b-| 

SECTION 2B 

Guitar 1 
D|------------------------------------| 
A|-8888--88-----------8888--88--------| 
F|-0000--00-----------0000--00--------| 
C|-----8---8-6--5b6r5-----8---8-5b6r5-|x2 
G|-----x---x-x--x---------x---x-x-----| 
C|-----8---8-6--5b6r5-----8---8-5b6r5-| 
||                                    | 
Guitar 2                              | 
D|------------------------------------| 
A|------------------------------------| 
F|------------------------------------| 
C|-----8---8-6--5b6r5-----8---8-5b6r5-|x2 
G|-----x---x-x--x---------x---x-x-----| 
C|-----8---8-6--5b6r5-----8---8-5b6r5-| 

Both Guitars 
D|------------------------------------| 
A|-8888--88-----------8888--88--------| 
F|-0000--00-----------0000--00--------| 
C|-----8---8-6--5b6r5-----8---8-5b6r5-|x2 
G|-----x---x-x--x---------x---x-x-----| 
C|-----8---8-6--5b6r5-----8---8-5b6r5-| 

SECTION 5 

Guitar 1 
D|-13-------13-11---------------------11-13-11---11--10-----10-----10--------------------| 
A|----11-------------------13s15-16----x--x--x----------11-----11-----11--------13-------| 
F|-------12-------12-10-12----------0--8-11--8-0---------0------0------0--12s15----15s12-| 
C|---------------------------------------------------------------------------------------| 
G|---------------------------------------------------------------------------------------| 
C|---------------------------------------------------------------------------------------| 
||                                                                 | 
Guitar 2                                                           | 
D|-----------------------------------------------------------------| 
A|-----------------------------------------------------------------| 
F|-----------------------------------------------------------------| 
C|-1-1-1-1-1-1-1-1-1s4-4-4-4-4-4-4-4s5-5-5-5-5-5-5-5-0-4-0-0-0-0-0-| 
G|-1-1-1-1-1-1-1-1-1s4-4-4-4-4-4-4-4s5-5-5-5-5-5-5-5-0-4-0-0-0-0-0-| 
C|-1-1-1-1-1-1-1-1-1s4-4-4-4-4-4-4-4s5-5-5-5-5-5-5-5-0-4-0-0-0-0-0-| 

Guitar 1 
D|-13-------13-11---------------------11-13-11---11--10-----10-----10-----10-----10-----| 
A|----11-------------------13s15-16----x--x--x----------11-----11-----11-----11-----11--| 
F|-------12-------12-10-12----------0--8-11--8-0---------0------0------0------0------0--| 
C|--------------------------------------------------------------------------------------| 
G|--------------------------------------------------------------------------------------| 
C|--------------------------------------------------------------------------------------| 
||                                                                 | 
Guitar 2                                                           | 
D|-----------------------------------------------------------------| 
A|-----------------------------------------------------------------| 
F|-----------------------------------------------------------------| 
C|-1-1-1-1-1-1-1-1-1s4-4-4-4-4-4-4-4s5-5-5-5-5-5-5-5-5-5-5-5-5-5\--| 
G|-1-1-1-1-1-1-1-1-1s4-4-4-4-4-4-4-4s5-5-5-5-5-5-5-5-5-5-5-5-5-5\--| 
C|-1-1-1-1-1-1-1-1-1s4-4-4-4-4-4-4-4s5-5-5-5-5-5-5-5-5-5-5-5-5-5\--| 


SECTION 6 

Guitar 1 
D|-----------------------------------------------------------------| 
A|-----------------------------------------------------------------| 
F|-----------------------------------------------------------------| 
C|-8-8-8-8-8-8-8-8-8-8-8-8-8-8-8-8-8-8-8-8-8-8-8-8-8s6-6-6-6-6-6-6-| 
G|-x-x-x-x-x-x-x-x-x-x-x-x-x-x-x-x-x-x-x-x-x-x-x-x-x---x-x-x-x-x-x-| 
C|-8-8-8-8-8-8-8-8-8-8-8-8-8-8-8-8-8-8-8-8-8-8-8-8-8s6-6-6-6-6-6-6-| 
||                                                                 | 
Guitar 2                                                           | 
D|-----------------------------------------------------------------| 
A|-----------------------------------------------------------------| 
F|-----------------------------------------------------------------| 
C|-1-1-1-1-1-1-1-1-1s4-4-4-4-4-4-4-4s5-5-5-5-5-5-5-5-0-0-0-0-0-0-0-| 
G|-x-x-x-x-x-x-x-x-x---x-x-x-x-x-x-x---x-x-x-x-x-x-x-x-x-x-x-x-x-x-| 
C|-1-1-1-1-1-1-1-1-1s4-4-4-4-4-4-4-4s5-5-5-5-5-5-5-5-0-0-0-0-0-0-0-| 

Guitar 1 
D|-----------------------------------------------------------------| 
A|-----------------------------------------------------------------| 
F|-----------------------------------------------------------------| 
C|-8-8-8-8-8-8-8-8-8-8-8-8-8-8-8-8-8-8-8-8-8-8-8-8-8s5-5-5-5-5-5-5-| 
G|-x-x-x-x-x-x-x-x-x-x-x-x-x-x-x-x-x-x-x-x-x-x-x-x-x---x-x-x-x-x-x-| 
C|-8-8-8-8-8-8-8-8-8-8-8-8-8-8-8-8-8-8-8-8-8-8-8-8-8s5-5-5-5-5-5-5-| 
||                                                                 | 
Guitar 2                                                           | 
D|-----------------------------------------------------------------| 
A|-----------------------------------------------------------------| 
F|-----------------------------------------------------------------| 
C|-1-1-1-1-1-1-1-1-1s4-4-4-4-4-4-4-4s5-5-5-5-5-5-5-5-5-5-5-5-5-5-5-| 
G|-x-x-x-x-x-x-x-x-x---x-x-x-x-x-x-x---x-x-x-x-x-x-x-x-x-x-x-x-x-x-| 
C|-1-1-1-1-1-1-1-1-1s4-4-4-4-4-4-4-4s5-5-5-5-5-5-5-5-5-5-5-5-5-5-5-| 

SECTION 7 

Both Guitars 
D|-------------------------------------------------------------| 
A|-------------------------------------------------------------| 
F|-------------------------------------------------------------| 
C|-3-5--8b--3-5--8b--6-6-6-6-3-5--8b--3-5--8b--6-6-6-6---------|x2 
G|-x-x--x---x-x--x---x-x-x-x-x-x--x---x-x--x---x-x-x-x-0-0-0-0-| 
C|-3-5--8b--3-5--8b--6-6-6-6-3-5--8b--3-5--8b--6-6-6-6-0-0-0-0-| 
                                                       . . . . 
SECTION 8 

Both Guitars 
D|------------------------| 
A|------------------------| 
F|---------3--------------| 
C|-2-----0----5b----------| 
G|-3-00001----x---0-0-0-0-| 
C|-2-00000----5b--0-0-0-0-| 
     ....         . . . . 

D|--------------------------| 
A|--------------------------| 
F|---------3--------------3-| 
C|-2-----0----------2---0---|x2 
G|-3-00001--------003-001---| 
C|-2-00000----5b--002-000---| 
     ....         ..  .. 

D|---------------------------| 
A|---------------------------| 
F|---------------------------| 
C|-2-----0---------2---0-----|x3 
G|-3-00001-------003-001-----| 
C|-2-00000-/8s3--002-000-/5v-| 
     ....        ..  .. 

D|------------------------| 
A|------------------------| 
F|------------------------| 
C|-2-----0---------2---0--| 
G|-3-00001-------003-001--| 
C|-2-00000-/8s3--002-000--| 
     ....        ..  .. 


D|----------------------| 
A|----------------------| 
F|----------------------| 
C|-2-----0---5----1---0-|x4 
G|-2-00000---5--001-000-| 
C|-2-00000---5--001-000-| 
     ....       ..  .. 

************************************ 

| .   palm mute 
| /   slide up 
| \   slide down 
| s   slide between notes 
| h   hammer-on 
| p   pull-off 
| x   Mute note 
| b   Bend 
| br  Bend release 

************************************ 
  

top 5 | norma jean
top rock'n roll
Outras músicas do artista letras do(a) Norma Jean
Top cifras »Top artistas »
Petaxxon Comunicação Online
Cifras.com.br - Melhor e mais completo site de cifras e tablaturas do Brasil
Mais de 1 milhão de acordes de músicas cadastradas desde 2003
As informações contidas no nosso site são colaborações de seus usuários e podem conter erros, sendo assim, não nos responsabilizamos sobre nenhuma destas.
close
menos
mais
close
Cor dos acordes:

Cor da letra:

 

save
close
close
 
redimensionar