Cifras e Tablaturas
Northlane

Northlane

Heartmachine

Cifras Cancelar Versão de Impressão
cifras

Northlane - Heartmachine

fixar na tela  
Exibindo: vídeo-aula ver clipes redimensionar
  
Intro 
   PALM MUTED: 
d#|---------------------------------------------------------------------------| 
A#|---------------------------------------------------------------------------| 
F#|---------------------------------------------------------------------------| 
C#|---------------------------------------------------------------------------| x2 
G#|---------------------------12------------------------------12--------------| 
D#|--9-9-10-10-12-12-13-13-10-----9-9-10-10-12-12-13-13-10-13-----------------| 
G#|-0-0-0--0--0--0--0--0--0--0---0-0-0--0--0--0--0--0--0--0--0----------------| 

   LET RING: 
d#|---------------------------------------------------------------------------| 
A#|---------------------------------------------------------------------------| 
F#|---------------------------------------------------------------------------| 
C#|---------------------------------------------------------------------------| x2 
G#|---------------------------12------------------------------12--------------| 
D#|--9-9-10-10-12-12-13-13-10-----9-9-10-10-12-12-13-13-10-13-----------------| 
G#|-0-0-0--0--0--0--0--0--0--0---0-0-0--0--0--0--0--0--0--0--0----------------| 
   
Verse 
   PART 1: Ambient clean sound 
d#|---------------------------------------------------------------------------| 
A#|---------------------------------------------------------------------------| 
F#|---9--99--9--99-99-99------------------------------------------------------| 
C#|-77-77--77-77--7--7--7777--------------------------------------------------| 
G#|---------------------------------------------------------------------------| 
D#|---------------------------------------------------------------------------| 
G#|---------------------------------------------------------------------------| 
   PART 2: Distorted 
D#|---------------------------------------------------------------------------| 
A#|---------------------------------------------------------------------------| 
F#|---------------------------------------------------------------------------| 
C#|---------------------------------------------------------------------------| 
G#|---------------------------------------------------------------------------| 
D#|---------------------------------------------------------------------------| 
G#|-1212121212-00000000-121212121212-00-8888888-------------------------------| 

verse 2 
The clean part in the first half of the verse i havent worked out yet sorry... 
   PART 1: 
D#|---------------------------------------------------------------------------| 
A#|---------------------------------------------------------------------------| 
F#|---------------------------------------------------------------------------| 
C#|---------------------------------------------------------------------------| 
G#|---------------------------------------------------------------------------| 
D#|---------------------------------------------------------------------------| 
G#|---------------------------------------------------------------------------| 

   PART 2: Distorted, PALM MUTED. Make sure on the 13 you slightly release the pressure on the mute. 
D#|---------------------------------------------------------------------------| 
A#|---------------------------------------------------------------------------| 
F#|---------------------------------------------------------------------------| 
C#|---------------------------------------------------------------------------| 
G#|---------------------------------------------------------------------------| 
D#|-999999-1010101010-121212121212-1313131313---------------------------------| 
G#|---------------------------------------------------------------------------| 

Chorus 
D#|---------------------------------------------------------------------------| 
A#|---------------------------------------------------------------------------| 
F#|---------------------------------------------------------------------------| 
C#|----10~--7~-------7~---9~--------------------------------------------------| repeat for whole Chorus 
G#|---------------------------------------------------------------------------| 
D#|---------------------------------------------------------------------------| 
G#|-88---55----55-55---77---77------------------------------------------------| 

Breakdown 
D#|---------------------------------------------------------------------------| 
A#|---------------------------------------------------------------------------| 
F#|---------------------------------------------------------------------------| 
C#|---------------------------------------------------------------------------|  
G#|---------------------------12----------------------------------------------| 
D#|--9-9-10-10-12-12-13-13-10-------------------------------------------------| 
G#|-0-0-0--0--0--0--0--0--0--0------------------------------------------------| 

Outro 
D#|---------------------------------------------------------------------------| 
A#|---------------------------------------------------------------------------| 
F#|---------------------------------------------------------------------------| 
C#|---------------------------------------------------------------------------| 
G#|-----------------------------------------------)---------------------------| 
D#|-999999-101010101010-121212121212-131313131313-)x3-------------------------| 
G#|-000000-000000000000-000000000000--------------)---------------------------| 

D#|---------------------------------------------------------------------------| 
A#|---------------------------------------------------------------------------| 
F#|---------------------------------------------------------------------------| 
C#|---------------------------------------------------------------------------| 
G#|---------------------------------------------------------------------------| 
D#|-999999-101010101010-121212121212-131313131313~~~~~--9~--------------------| 
G#|-000000-000000000000-000000000000--------------------0~--------------------| 

************************************ 

~ = Let Ring 

************************************ 
  

top 5 | northlane
top heavy metal
Outras músicas do artista letras do(a) Northlane
Top cifras »Top artistas »
Petaxxon Comunicação Online
Cifras.com.br - Melhor e mais completo site de cifras e tablaturas do Brasil
Mais de 1 milhão de acordes de músicas cadastradas desde 2003
As informações contidas no nosso site são colaborações de seus usuários e podem conter erros, sendo assim, não nos responsabilizamos sobre nenhuma destas.
close
menos
mais
close
Cor dos acordes:

Cor da letra:

 

save
close
close
 
redimensionar