Cifras e Tablaturas
Northlane

Northlane

Soma

Cifras Cancelar Versão de Impressão

Northlane - Soma

Tom:

  			
Intro/Verse 
C ----------------------------------------------------------------------------------------------- 
G ----------------------------------------------------------------------------------------------- 
D# ---------------------------------------------------------------------------------------------- 
A# ---------------------------------------------------------------------------------------------- 
F ----------------------------------------------------------------------------------------------- 
A# ---------------------------------------------------------------------------------------------- 
F --------7-7-7-7-7-7---7-7-7-7-7-7---7-7-7-7-7-7/10-10-10-10-10-10------------------------------ 

C ----------------------------------------------------------------------------------------------- 
G ----------------------------------------------------------------------------------------------- 
D# ---------------------------------------------------------------------------------------------- 
A# ---------------------------------------------------------------------------------------------- 
F ----------------------------------------------------------------------------------------------- 
A# ---------------------------------------------------------------------------------------------- 
F ------0-0-0-0-0-0---0-0-0-0-0-0---3-3-3-3-3-3/5-5-5-5-5-5-------------------------------------- 

C ----------------------------------------------------------------------------------------------- 
G ----------------------------------------------------------------------------------------------- 
D# ---------------------------------------------------------------------------------------------- 
A# ---------------------------------------------------------------------------------------------- 
F ----------------------------------------------------------------------------------------------- 
A# ---------------------------------------------------------------------------------------------- 
F -------7-7-7-7-7-7---7-7-7-7-7-7---0-0-0-0-12p0--0-0-0-0-12p0--0-0-0-0-0-12p0------------------ 

Riff 2 
C ----------------------------------------------------------------------------------------------- 
G ----------------------------------------------------------------------------------------------- 
D# ---------------------------------------------------------------------------------------------- 
A# ---------------------------------------------------------------------------------------------- 
F ----------------------------------------------------------------------------------------------- 
A# ---------------------------------------------------------------------------------------------- 
F -----/15-15-15-15-15-15-15~--0-15~--0-15~----0--0--10--0--10h12----0--0--10/7------------------ 

C ----------------------------------------------------------------------------------------------- 
G ----------------------------------------------------------------------------------------------- 
D# ---------------------------------------------------------------------------------------------- 
A# -----9~-----------7~-------------------------------------------------------------------------- 
F ------9~-----------7~-------------------------------------------------------------------------- 
A# -----7~-----------5~-------------------------------------------------------------------------- 
F --------------------------------0h10---0h10--0h10h12/0~--0--0~--00----------------------------- 
PM							   .	  .. 

C ----------------------------------------------------------------------------------------------- 
G ----------------------------------------------------------------------------------------------- 
D# ---------------------------------------------------------------------------------------------- 
A# ---------------------------------------------------------------------------------------------- 
F ------------------------------------------------------5---------------------------------------- 
A# ---------------------------------------------------------------------------------------------- 
F ------10--0h10--0h10h12/3b--3b--02h3--12p0--0--0--7-------------------------------------------- 

C ----------------------------------------------------------------------------------------------- 
G ----------------------------------------------------------------------------------------------- 
D# ---------------------------------------------------------------------------------------------- 
A# -----9~-----------7~-------------------------------------------------------------------------- 
F ------9~-----------7~-------------------------------------------------------------------------- 
A# -----7~-----------5~-------------------------------------------------------------------------- 
F --------------------------------0h10---0h10--0h10h12/0~--0--0~--00----------------------------- 
PM                                                         .      .. 

C ----------------------------------------------------------------------------------------------- 
G ----------------------------------------------------------------------------------------------- 
D# ---------------------------------------------------------------------------------------------- 
A# ---------------------------------------------------------------------------------------------- 
F -------------------------------------------------x--x--x--------------------------------------- 
A# ------------------------------------------------x--x--x--------------------------------------- 
F ------0h10--0h10--0h10h12/3b--3b--02h3--12p0-----x--x--x--------------------------------------- 

Breakdown  
C ----------------------------------------------------------------------------------------------- 
G -----------------11------------------------------11--------------11---------------------------- 
D# ----------------x--------------------------------x---------------x---------------------------- 
A# ----------------8--------------------------------8---------------8---------------------------- 
F ----------------------------------------------------------------------------------------------- 
A# ---------------------------------------------------------------------------------------------- 
F -----7-7-7-7----------/7-7-7-7/5-5-5-5/7-7-7-7-----------7b-7--------5-5-5/-------------------- 
                                                           * 

C ----------------------------------------------------------------------------------------------- 
G -----------------11------11---------------------------11--------------11----------------------- 
D# ----------------x-------x-----------------------------x---------------x----------------------- 
A# ----------------8-------8-----------------------------8---------------8----------------------- 
F ----------------------------------------------------------------------------------------------- 
A# ---------------------------------------------------------------------------------------------- 
F -----7-7-7-7-------7~------/7-7-7-7/5-5-5-5/7-7-7-7-----------7b-7--------5-5-5---------------- 

Clean Part 
C ----------------------------------------------------------------------------------------------- 
G ----------------------------------------------------------------------------------------------- 
D# ---------------------------------9------------------------------------------------------------ 
A# --------6--7--6~--6~----------9-----9~--9~-----------6--7--6~---7--6~----------------7--6----- 
F ------5---------------------7-----------------------5----------------------5-6---7--5---------- 
A# ---7---------------------9-----------------------7-------------------------------------------x4 
F ----------------------------------------------------------------------------------------------- 
PM    . .	            . .			    . .   	             . . 

Next Riff 
C ----------------------------------------------------------------------------------------------- 
G -----------------------5~---------------------------------------------------------------------- 
D# -----13~-------9~-----------7~----------13~------9~------------------------------------------- 
A# ------x--------x-------------------------x-------x-------6-6-6-6------------------------------ 
F ------11~-------7~-----------------------11~------7~------------------------------------------- 
A# ---------------------------------------------------------------------------------------------- 
F ----------------------------------------------------------------------------------------------- 

C ----------------------------------------------------------------------------------------------- 
G -----------------------5~---------------------------------------------------------------------- 
D# -----13~-------9~-----------7~----------13~------9~------17~---------------------------------- 
A# ------x--------x-------------------------x-------x--------x----------------------------------- 
F ------11~-------7~-----------------------11~------7~------15~---------------------------------- 
A# ---------------------------------------------------------------------------------------------- 
F ----------------------------------------------------------------------------------------------- 

Then you just repeat intro, riff 2, breakdown 

at the breakdown,  
where the * is play this, 
play the rest normally                     end on 
C -----------------------------|------------------------------------------------------------------ 
G -----------------------------|------------------------------------------------------------------ 
D# ----------------------------|------------------------------------------------------------------ 
A# ----------------------------|------------------------------------------------------------------ 
F -----------------------------|------------------------------------------------------------------ 
A# ----------------------------|------------------------------------------------------------------ 
F ----0~-0~--------------------|---------5-5-5---7--7~-------------------------------------------- 
    	
fixar
fixar inscrever-se

enviado porenviado por: victborges
cifra enviadaCorrigida por: sem correções
logo top cifrasComente
ico música do artistaMúsicas deste artista
ico curtiuCurtiu?
ico destaqueDestaque
Petaxxon Comunicação Online

Cifras.com.br - Melhor e mais completo site de cifras e tablaturas do Brasil Mais de 1 milhão de acordes de músicas cadastradas desde 2003
As informações contidas no nosso site são colaborações de seus usuários e podem conter erros, sendo assim, não nos responsabilizamos sobre nenhuma destas.

close
menos
mais
close
Cor dos acordes:

Cor da letra:

close
Alinhar acordes a direita Alinhar acordes a esquerda Alinhar acordes em baixo Alinhar acordes no topo
close
  Mostrar todos os acordes Esconder acordes muito fáceis Esconder acordes fáceis Esconder acordes intermediários
redimensionar
glossário