Cifras e Tablaturas
Nothing More

Nothing More

Dont Stop

Cifras Cancelar Versão de Impressão
cifras

Nothing More - Dont Stop

fixar na tela  
Exibindo: vídeo-aula ver clipes redimensionar

Tom:

  
Pre-Chorus 1 
D|---------------------------------------------------------------------------------| 
A|---------------------------------------------------------------------------------| 
F|---------------------------------------------------------------------------------| 
C|---------------------------------------------------------------------------------| 
G|-7-7-7-7-7-7-7-7-7-7-7-7-7-7-7-7-10-10-10-10-10-10-10-10-10-10-10-10-10-10-10-10-| 
A|---------------------------------------------------------------------------------| 
  p.m. . . . . . . . . . . . . . . . . . . . . . . . . . . . . . . . . . . . . . .  
											1-st ending 
D|-------------------------------------------------------------------------------------------------| 
A|-------------------------------------------------------------------------------------------------| 
F|-------------------------------------------------------------------------------------------------| 
C|-------------------------------------------------------------------------------------------------| 
G|-14-14-14-14-14-14-14-14-14-14-14-14-14-14-14-14-12-12-12-12-12-12-12-12-12-12-12-12-12-12-12-12-| 
A|-------------------------------------------------------------------------------------------------| 
  p.m. . . . . . . . . . . . . . . . . . . . . . . . . . . . . . . . . . . . . . . . . . . . . . .  
							    2-nd ending 
D|---------------------------------------------------------------------| 
A|---------------------------------------------------------------------| 
F|---------------------------------------------------------------------| 
C|---------------------------------------------------------------------| 
G|-14-14-14-14-14-14-14-14-14-14-14-14-14-14-14-14/5----5-4-5-4-5-4-5~-| 
A|---------------------------------------------------------------------| 
  p.m. . . . . . . . . . . . . . . . . . . . . . .  

Chorus 1 
D|-------------------------------------------------------------| 
A|-------------------------------------------------------------| 
F|--------------12~-----------11~----------8-8-8-8-8-8-8-8-8-8-| 
C|--------------x-------------x------------x-x-x-x-x-x-x-x-x-x-| 
G|--------------10~-----------9~-----------6-6-6-6-6-6-6-6-6-6-| 
A|-0h12p0---0------------0-0----------0------------------------| 

D|------------------------------------------------------------------------| 
A|------------------------------------------------------------------------| 
F|---------------------12~-----------11~----------8-8-8-8-7-7-7-7-7-7-7-7-| 
C|---------------------x-------------x------------x-x-x-x-x-x-x-x-x-x-x-x-| 
G|---------------------10~-----------9~-----------6-6-6-6-5-5-5-5-5-5-5-5-| 
A|-12-12-10h12p0---0------------0-0----------0----------------------------| 

D|---------------------------------------------------------------| 
A|---------------------------------------------------------------| 
F|--------------12~-----------11~----------8-8-8-8-8-8-8-8-8-8-9-| 
C|--------------x-------------x------------x-x-x-x-x-x-x-x-x-x-x-| 
G|--------------10~-----------9~-----------6-6-6-6-6-6-6-6-6-6-7-| 
A|-0h12p0---0------------0-0----------0--------------------------| 

D|-------------------------------------------------------------------| 
A|-------------------------------------------------------------------| 
F|-9-9/11-12----12-12-12-12-12-12------------------------------------| 
C|-x-x-x--x-----x--x--x--x--x--x-------------------------------------| 
G|-7-7/9--10----10-10-10-10-10-10------------------------------------| 
A|-----------------------------------0-8-10-0-8-10-0-----------------| 

verse 2							    4 times 
D|-----------------------------------------------------------------| 
A|-----------------------------------------------------------------| 
F|-----------------------------------------------------------------| 
C|-----------------------------------------------------------------| 
G|-2-2-2-2-2-2-2-2-2-2-2-2-2-2-2-2---------------------------------| 
A|---------------------------------0-0-0-0-0-0-0-0-0-0-0-0-0-0-0-0-| 
   .   . .   . . . . . . . . . . .   . .   . . . . . . . . . . . . .    

Pre-Chorus 2 
D|-----------------------------------------------------------------------------------| 
A|-----------------------------------------------------------------------------------| 
F|-9-9-9-9-9-9-9-9-9-9-9-9-9-9-11-11-12-12-12-12-12-12-12-12-12-12-12-12-14-14-14-14-| 
C|-x-x-x-x-x-x-x-x-x-x-x-x-x-x-x--x--x--x--x--x--x--x--x--x--x--x--x--x--x--x--x--x--| 
G|-7-7-7-7-7-7-7-7-7-7-7-7-7-7-9--9--10-10-10-10-10-10-10-10-10-10-10-10-12-12-12-12-| 
A|-----------------------------------------------------------------------------------| 
   
D|-------------------------------------------------------------------------------------------------| 
A|-------------------------------------------------------------------------------------------------| 
F|-16-16-16-16-16-16-16-16-16-16-16-16-16-16-16-16-14-14-14-14-14-14-14-14-14-14-14-14-14-14-14-14-| 
C|-x--x--x--x--x--x--x--x--x--x--x--x--x--x--x--x--x--x--x--x--x--x--x--x--x--x--x--x--x--x--x--x--| 
G|-14-14-14-14-14-14-14-14-14-14-14-14-14-14-14-14-12-12-12-12-12-12-12-12-12-12-12-12-12-12-12-12-| 
A|-------------------------------------------------------------------------------------------------| 

Chorus 2 
D|-------------------------------------------------------------| 
A|-------------------------------------------------------------| 
F|--------------12~-----------11~----------8-8-8-8-8-8-8-8-8-8-| 
C|--------------x-------------x------------x-x-x-x-x-x-x-x-x-x-| 
G|--------------10~-----------9~-----------6-6-6-6-6-6-6-6-6-6-| 
A|-0h12p0---0------------0-0----------0------------------------| 

D|------------------------------------------------------------------------| 
A|------------------------------------------------------------------------| 
F|---------------------12~-----------11~----------8-8-8-8-7-7-7-7-7-7-7-7-| 
C|---------------------x-------------x------------x-x-x-x-x-x-x-x-x-x-x-x-| 
G|---------------------10~-----------9~-----------6-6-6-6-5-5-5-5-5-5-5-5-| 
A|-12-12-10h12p0---0------------0-0----------0----------------------------| 

D|---------------------------------------------------------------| 
A|---------------------------------------------------------------| 
F|--------------12~-----------11~----------8-8-8-8-8-8-8-8-8-8-9-| 
C|--------------x-------------x------------x-x-x-x-x-x-x-x-x-x-x-| 
G|--------------10~-----------9~-----------6-6-6-6-6-6-6-6-6-6-7-| 
A|-0h12p0---0------------0-0----------0--------------------------| 

D|--------------------------------| 
A|--------------------------------| 
F|-9-9/11-12----12-12-12-12-12-12-| 
C|-x-x-x--x-----x--x--x--x--x--x--| 
G|-7-7/9--10----10-10-10-10-10-10-| 
A|--------------------------------| 

Bridge 1(rhytm) 
D|----------------------------------------------------------------------------------------------| 
A|----------------------------------------------------------------------------------------------| 
F|----------------------------------------------------------------------------------------------| 
C|----------------------------------------------------------------------------------------------| 
G|----------------------------------------------------------------------------------------------| 
A|-12p0-0-0~---0-0-0-0-0-0---0-0-0-0-0---12-12-10h12-0---0-0---0---0-0-0-0-0-0-0---0-0-0-12p0-0-| 

D|----------------------------------------------| 
A|----------------------------------------------| 
F|----------------------------------------------| 
C|----------------------------------------------| 
G|----------------------------------------------| 
A|-12-12-10h12p0-0-0~---0-0-0-0-0-0---0-0-0-0-0-| 

D|--------------------------------------------------------------------| 
A|--------------------------------------------------------------------| 
F|--------------------------------------------------------------------| 
C|--------------------------------------------------------------------| 
G|--------------------------------------------------------------------| 
A|-12-12-8h10-10---10-10---10---10-10-10-10-10-10-10---10-10-10-10-10-| 

Bridge 1(lead)			  w/tremolo picking 
D|-/22-----14/21-----19-----14/22-----14/21-----19-| 
A|-------------------------------------------------| 
F|-------------------------------------------------| 
C|-------------------------------------------------| 
G|-------------------------------------------------| 
A|-------------------------------------------------| 

Bridge 2				     |				     3 times| 
D|-------------------------------------------|--------------------------------------| 
A|-------------------------------------------|--------------------------------------| 
F|-------------------------------------------|--------------------------------------| 
C|-------------------------------------------|--------------------------------------| 
G|-------------------------------------------|--------------------------------------| 
A|-12-10-10-10-12-10-10-12-10-12-10-12-10-12-|-12-10--12-10-10-12-10-12-10-12-10-12-| 
   p.m.  .  .  .  .  .  .  .  .  .  .  .  .    .  .   .  .  .  .  .  .  .  .  .  .    

Pre-Chorus 3							    2 times 
D|-------------------------------------------------------------------------| 
A|-------------------------------------------------------------------------| 
F|-------------------------------------------------------------------------| 
C|-------------------------------------------------------------------------| 
G|-------------------------------------------------------------------------| 
A|-5-5-5-5-5-5-5-5-8-8-8-8-8-8-8-8-0-0-0-0-0-0-0-0-10-10-10-10-10-10-10-10-| 
   p.m.. . . . . . . . . . . . . . . . . . . . . . .  .  .  .  .  .  .  . 

Chorus 3 
D|---------------------------------------------------------------------------------| 
A|---------------------------------------------------------------------------------| 
F|---------------------------------------------------------------------------------| 
C|---------------------------------------------------------------------------------| 
G|---------------------------------------------------------------------------------| 
A|-10h12-0-0-0-0-0-0/8-8-8-0-0-0-7-7-7-5-5-5-/12-12-12-12-/12-12-12-12-12-12-12-12-| 

D|---------------------------------------------------------------------------| 
A|---------------------------------------------------------------------------| 
F|---------------------------------------------------------------------------| 
C|---------------------------------------------------------------------------| 
G|---------------------------------------------------------------------------| 
A|-10h12-0-0-0-0-0-0/8-8-8-0-0-0-7-7-7-7-5-5-4-4-4-4-12-10-10-10-12-10-10-10-| 
               										 
D|---------------------------------------------------------------------------------| 
A|---------------------------------------------------------------------------------| 
F|---------------------------------------------------------------------------------| 
C|---------------------------------------------------------------------------------| 
G|---------------------------------------------------------------------------------| 
A|-10h12-0-0-0-0-0-0/8-8-8-0-0-0-7-7-7-5-5-5-/12-12-12-12-/12-12-12-12-12-12-12-12-| 

				      2 times  
D|-------------------------------------------| 
A|-------------------------------------------| 
F|-12-12--12-12/14--12-12--14-14-14-14-14-14-| 
C|-x--x---x--x--x---x--x---x--x--x--x--x--x--| 
G|-10-10--10-10/12--10-10--12-12-12-12-12-12-| 
A|-------------------------------------------| 

D|----------------------------------------------| 
A|----------------------------------------------| 
F|-12\------------------------------------------| 
C|-x-----2---2---2------------------------------| 
G|-10\-0-0-0-0-0-0------------------------------| 
A|-----------------10\5/10~------0-10p0-0-10p0~-| 
       .   .   .                 .      . 
  

Outro                          6 times 
D|-------------------------------------| 
A|-------------------------------------| 
F|-------------------------------------| 
C|-------------------------------------| 
G|-------------------------------------| 
A|-0-10p0-0-10p0-0-10p0-0-10p0-0-10p0~-| 
   .      .      .      .      . 

D|--------------------------0~-| 
A|--------------------------0~-| 
F|--------------------------0~-| 
C|--------------------------0~-| 
G|--------------------------0~-| 
A|-0--0--0--1/2/3/4/5/6/7/8/0~-| 
  

top 5 | nothing more
top rock'n roll
Outras músicas do artista letras do(a) Nothing More
Top cifras »Top artistas »
Petaxxon Comunicação Online
Cifras.com.br - Melhor e mais completo site de cifras e tablaturas do Brasil
Mais de 1 milhão de acordes de músicas cadastradas desde 2003
As informações contidas no nosso site são colaborações de seus usuários e podem conter erros, sendo assim, não nos responsabilizamos sobre nenhuma destas.
close
menos
mais
close
Cor dos acordes:

Cor da letra:

 

save
close
close
 
redimensionar