Cifras e Tablaturas
Nothing More

Nothing More

Let Em Burn

Cifras Cancelar Versão de Impressão
cifras

Nothing More - Let Em Burn

fixar na tela  
Exibindo: vídeo-aula ver clipes redimensionar

Tom:

  
Intro riff 
 |                        3 times|	  4-th time| 
D|-------------------------------|-----------------| 
A|-------------------------------|-----------------| 
F|-------------------------------|-----------------| 
C|-------------------------------|-----------------| 
G|-8-x-8-x-8-x-7-x-7-x-7-x-4-x-4-|-x-8-x-8-x-8-x-7-| 
C|-------------------------------|-----------------| 

Main riff(2 times) 
 |				3 times|		      4-th time| 
D|-------------------------------------|-------------------------------| 
A|-------------------------------------|-------------------------------| 
F|-------------------------------------|-------------------------------| 
C|-------------------------------------|-------------------------------| 
G|-------------------------------------|-------------------------------| 
C|-15-x-0-x-15-x-14-x-0-x-15-x-14-x-11-|-8-x-0-x-8-x-7-x-0-x-3-x-2-x-0-| 

verse 1 
D|---------------------------------------------------------------------------------------| 
A|---------------------------------------------------------------------------------------| 
F|---------------------------------------------------------------------------------------| 
C|---------------------------------------------------------------------------------------| 
G|---------------------------------------------------------------------------------------| 
C|-/12-12-x-x-/12-12-12-12-12-x-/12-12-12-12-x-/12-12-x-x-/12-12-12-12-12-x-/12-12-12-12-| 
  p.m  .       .  .  .  .  .     .  .  .  .     .  .       .  .  .  .  .     .  .  .  . 
D|-----------------------------------------------------------------| 
A|-----------------------------------------------------------------| 
F|-----------------------------------------------------------------| 
C|-----------------------------------------------------------------| 
G|-----------------------------------------------------------------| 
C|-/8-8-x-x-/8-8-8-8-8-x-/8-8-8-8-x-/7-7-x-x-/7-7-7-7-7-x-/7-11-11-| 
  p.m .      . . . . .    . . . .    . .      . . . . .    
D|-------------------------------------------------| 
A|-------------------------------------------------| 
F|-------------------------------------------------| 
C|-------------------------------------------------| 
G|-------------------------------------------------| 
C|-12-15-12-12-15-12-12-14-12-15-12-12-15-12-12-14-| 

D|-----------------------------------------| 
A|-----------------------------------------| 
F|-----------------------------------------| 
C|-----------------------------------------| 
G|-----------------------------------------| 
C|-8-15-8-8-15-8-8-15-7-15-7-7-15-14-12-11-| 

Pre-Chorus 1 
D|-----------------------------------------------------------------| 
A|-----------------------------------------------------------------| 
F|-7-7-7-7-7-7-7-7-7-7-7-7-7-7-7-7-9-9-9-9-9-9-9-9-9-9-9-9-9-9-9-9-| 
C|-----------------------------------------------------------------| 
G|-----------------------------------------------------------------| 
C|-----------------------------------------------------------------| 

D|-------------------------------------------------------------------------------------------------| 
A|-------------------------------------------------------------------------------------------------| 
F|-10-10-10-10-10-10-10-10-10-10-10-10-10-10-10-10-12-12-12-12-12-12-12-12-12-12-12-12-12-12-12-12-| 
C|-------------------------------------------------------------------------------------------------| 
G|-------------------------------------------------------------------------------------------------| 
C|-------------------------------------------------------------------------------------------------| 

Chorus 1(w/tremolo picking) 
D|----------------------------------| 
A|-10/15--18-----17-13-15--18-20-13-| 
F|----------------------------------| 
C|----------------------------------| 
G|----------------------------------| 
C|----------------------------------| 

Main riff 
 |				3 times|	      4-th time| 
D|-------------------------------------|-----------------------| 
A|-------------------------------------|-----------------------| 
F|-------------------------------------|-----------------------| 
C|-------------------------------------|-----------------------| 
G|-------------------------------------|-8-x-8-x-8-x-7-x-7-x-4-| 
C|-15-x-0-x-15-x-14-x-0-x-15-x-14-x-11-|-----------------------| 

verse 2 
D|---------------------------------------------------------------------------------------| 
A|---------------------------------------------------------------------------------------| 
F|---------------------------------------------------------------------------------------| 
C|---------------------------------------------------------------------------------------| 
G|---------------------------------------------------------------------------------------| 
C|-/12-12-x-x-/12-12-12-12-12-x-/12-12-12-12-x-/12-12-x-x-/12-12-12-12-12-x-/12-12-12-12-| 
  p.m  .       .  .  .  .  .     .  .  .  .     .  .       .  .  .  .  .     .  .  .  . 
D|-----------------------------------------------------------------| 
A|-----------------------------------------------------------------| 
F|-----------------------------------------------------------------| 
C|-------------------------------------7---------------------------| 
G|-------------------------------------7---------------------------| 
C|-/8-8-x-x-/8-8-8-8-8-x-/8-8-8-8--x-x-7---------------------------| 
  p.m .      . . . . .    . . . . 
D|-----------------------------------------------------------------| 
A|-----------------------------------------------------------------| 
F|-----------------------------------------------------------------| 
C|-----------------------------------------------------------------| 
G|-----------------------------------------------------------------| 
C|-12-15-12-12-15-12-12-14-12-15-12-12-15-12-12-14-----------------| 

D|-----------------------------------------------------------------| 
A|-----------------------------------------------------------------| 
F|-----------------------------------------------------------------| 
C|-----------------------------------------------------------------| 
G|-----------------------------12-10-8-7---------------------------| 
C|-8-15-8-8-15-8-8-15-7-15-7-7-------------------------------------| 

Pre-Chorus 

Chorus 2(w/tremolo picking) 
D|--------------------------------------------------------------------| 
A|-10/15--18-----17-13-15--18-20-17--13-15--18-----17-13-15--18-20-17-| 
F|--------------------------------------------------------------------| 
C|--------------------------------------------------------------------| 
G|--------------------------------------------------------------------| 
C|--------------------------------------------------------------------| 

Clean part 
D|------------------------------------------------| 
A|-18---18-----20---20-----15---15-----13---13----| 
F|----15---15-----15---15-----14---14-----10---10-| 
C|------------------------------------------------| 
G|------------------------------------------------| 
C|------------------------------------------------| 

D|-------------------------17---17----17---17---17---17----| 
A|-18---18-----20---20--------15---15----15---15---15---15-| 
F|----15---15-----15---15----------------------------------| 
C|---------------------------------------------------------| 
G|---------------------------------------------------------| 
C|---------------------------------------------------------| 

Overdrive part 
D|------------------------------------------------------------| 
A|-15---15-----15---15-----15---15-----13-15---15---15---15---| 
F|------------------------------------------------------------| 
C|---------------12---12-----10---10--------10---10---10---10-| 
G|---13---13--------------------------------------------------| 
C|------------------------------------------------------------| 

 | 					    2 times| 
D|-------------------------------------------------| 
A|-15----15----15----15----15----15----15----15----| 
F|-------------------------------------------------| 
C|----------------12----12----10----10----10----10-| 
G|----13----13-------------------------------------| 
C|-------------------------------------------------| 

Intro riff 

Main riff 

Pre-Chorus 3 
 |		 3 times|     4-th time| 
D|----------------------|--------------| 
A|----------------------|--------------| 
F|----------------------|--------------| 
C|----------------------|-8-8-8-8--x-x-| 
G|----------------------|-8-8-8-8--x-x-| 
C|-15~0-15-14-0-15-11~0-|-8-8-8-8--x-x-| 

Chorus 3(w/tremolo picking) 
D|---------------------------------------/17--/17--15-----------------------------------------| 
A|-15--18-----17-13-15--18-20-17--13-15---------------13-15--18-20-17-------------------------| 
F|--------------------------------------------------------------------------------------------| 
C|--------------------------------------------------------------------------------------------| 
G|--------------------------------------------------------------------------------------------| 
C|---------------------------------------------------------------------12/--13-13-13-13-13-13-| 
									    .  .  .  .  .  . 
Outro 
D|--------------------------------------------------------------| 
A|---------------------15---------------------------------------| 
F|---------------------14---------------------------------------| 
C|---------------------12---------------------------------------| 
G|--------------------------------------------------------------| 
C|-15~0---0---0-15~0-----0---0-15~0-x-15-x-14-x-0-x-15-x-14-x-11| 

D|-------------------------------| 
A|-------------------------------| 
F|-------------------------------| 
C|-------------------------------| 
G|-------------------------------| 
C|-8-x-0-x-8-x-7-x-0-x-3-x-2-x-1-| 

Enjoy!! 
  

top 5 | nothing more
top rock'n roll
Outras músicas do artista letras do(a) Nothing More
Top cifras »Top artistas »
Petaxxon Comunicação Online
Cifras.com.br - Melhor e mais completo site de cifras e tablaturas do Brasil
Mais de 1 milhão de acordes de músicas cadastradas desde 2003
As informações contidas no nosso site são colaborações de seus usuários e podem conter erros, sendo assim, não nos responsabilizamos sobre nenhuma destas.
close
menos
mais
close
Cor dos acordes:

Cor da letra:

 

save
close
close
 
redimensionar