Cifras e Tablaturas
Nx Zero

Nx Zero

Mandela

Cifras Cancelar Versão de Impressão
cifras

Nx Zero - Mandela

fixar na tela  
Exibindo: vídeo-aula ver clipes redimensionar

Tom:

Em

ver outros tons
  
E|-----------------------| 
B|-----------------------| 
G|-----------------------| 
D|-----------------------| 
A|--5h7~--------5-7-5-7--| 
E|--0----3-2-3-----------| 


E|----------------------------------| 
B|----------------------------------| 
G|----------------------------------| 
D|----------------------------------| 
A|------3-3------2-2--3-2--5-7-5-7--| 
E|--3h5------3h5--------------------| 


E|--------------------------------------| 
B|--------------------------------------| 
G|--------------------------------------| 
D|----------5---5-----------------------| 
A|------3-3---7---7-2-2--3-2---5-7-5-7--| 
E|--3h5----------------------3----------| 


E|-------------------------------------------------------------| 
B|-------------------------------------------------------------| 
G|-------------------------------------------------------------| 
D|-----------------------------------------------5-------------| 
A|------3-3------2-2--3-2--5-7-5-7--7-7-7-5-7--7---3-3--2-2-0--| 
E|--3h5------3h5-----------------------------------------------| 


GUITARRA 2:  


Obs.: Toda vez que fazer a parte (A|-5-7-5-7-|( essa guitarra fará um 

( Em )  na 7ª casa. 

VERSO: 

GUITARRA 1: 

    P.M.................... 

E|---------------------------| 
B|---------------------------| 
G|---------------------------| 
D|---------------------------| 
A|--2-2------3-3----3-2-3-2--| 
E|--0-0--3-5-----------------| 


    P.M...............| 

E|-------------------------| 
B|-------------------------| 
G|-------------------------| 
D|-------------------------| 
A|--2-2------3-3-2-2-------| 
E|--0-0--3-5----------5b7--| 


    P.M.........    H.M. 

E|----------------------| 
B|----------------------| 
G|------------------12--| 
D|----------------------| 
A|--2-2------3-3--------| 
E|--0-0--3-5------------| 


    P.M.................... 

E|---------------------------| 
B|---------------------------| 
G|---------------------------| 2x 
D|---------------------------| 
A|--2-2------3-3----3-2-3-2--| 
E|--0-0--3-5-----------------| 


    P.M...............| 

E|-------------------------| 
B|-------------------------| 
G|-------------------------| 
D|-------------------------| 
A|--2-2------3-3-2-2-------| 
E|--0-0--3-5----------5b7--| 


    P.M.................... 

E|---------------------------| 
B|---------------------------| 
G|---------------------------| 
D|---------------------------| 
A|--2-2------3-3----3-2-3-2--| 
E|--0-0--3-5-----------------| 


    P.M...............| 

E|-------------------------| 
B|-------------------------| 
G|-------------------------| 
D|-------------------------| 
A|--2-2------3-3-2-2-------| 
E|--0-0--3-5----------5b7--| 


GUITARRA 2: 

    H.M.        P.M+H.M 

E|--------------12...-------12-12-12--| 
B|--12--------------------------------| 
G|--12----12--------------------------| 
D|------------------------------------| 
A|------------------------------------| 
E|------------------------------------| 


Viver no pecado, ou não 
E mentir na oração 
É melhor explodir 
Que deixar apagar 
Uma mente atordoada vara a madrugada 
Terremoto interno deixa a cabeça inchada 
Quero me libertar 
Porque só se preocupar não resolve o problema 

Quando um pesadelo invade o sono 
Muda o eixo, envenena os sentidos 
Não se entregue a esse vício 
Seja forte, e não omisso 

REFRÃO: 


E|----------------------------------------|    |------------| 
B|----------------------------------------|    |------------| 
G|-------------------------0---------0----| 4x |------------| 
D|-----------------------2---2-----4---4--|    |------------| 
A|--5h7-7-7-7-7-2----2-3-------3/5--------|    |--5-7--5-7--| 
E|--------------0--3----------------------|    |------------| 



Pra não perder o controle tem ser um monge 
Farol alto na estrada pra enxergar mais longe 
Se não a vida passa e você se esconde 
Se não a vida passa e você se esconde 

Intro: 

GUITARRA 1: 


E|----------------------------------| 
B|----------------------------------| 
G|----------------------------------| 
D|----------------------------------| 
A|------3-3------2-2--3-2--5-7-5-7--| 
E|--3h5------3h5--------------------| 


E|--------------------------------------| 
B|--------------------------------------| 
G|--------------------------------------| 
D|----------5---5-----------------------| 
A|------3-3---7---7-2-2--3-2---5-7-5-7--| 
E|--3h5----------------------3----------| 


E|-------------------------------------------------------------| 
B|-------------------------------------------------------------| 
G|-------------------------------------------------------------| 
D|-----------------------------------------------5-------------| 
A|------3-3------2-2--3-2--5-7-5-7--7-7-7-5-7--7---3-3--2-2-0--| 
E|--3h5------3h5-----------------------------------------------| 


GUITARRA 2:  


Obs.: Toda vez que fazer a parte (A|-5-7-5-7-|( essa guitarra fará um 

( Em )  na 7ª casa. 

VERSO: 

GUITARRA 1: 

    P.M.................... 

E|---------------------------| 
B|---------------------------| 
G|---------------------------| 
D|---------------------------| 
A|--2-2------3-3----3-2-3-2--| 
E|--0-0--3-5-----------------| 


    P.M...............| 

E|-------------------------| 
B|-------------------------| 
G|-------------------------| 
D|-------------------------| 
A|--2-2------3-3-2-2-------| 
E|--0-0--3-5----------5b7--| 


    P.M......... 

E|----------------| 
B|----------------| 
G|----------------|  2x 
D|----------------| 
A|--2-2------3-3--| 
E|--0-0--3-5------| 


    P.M.................... 

E|---------------------------| 
B|---------------------------| 
G|---------------------------| 
D|---------------------------| 
A|--2-2------3-3----3-2-3-2--| 
E|--0-0--3-5-----------------| 


    P.M...............| 

E|-------------------------| 
B|-------------------------| 
G|-------------------------| 
D|-------------------------| 
A|--2-2------3-3-2-2-------| 
E|--0-0--3-5----------5b7--| 


    P.M.................... 

E|---------------------------| 
B|---------------------------| 
G|---------------------------| 
D|---------------------------| 
A|--2-2------3-3----3-2-3-2--| 
E|--0-0--3-5-----------------| 


    P.M...............| 

E|-------------------------| 
B|-------------------------| 
G|-------------------------| 
D|-------------------------| 
A|--2-2------3-3-2-2-------| 
E|--0-0--3-5----------5b7--| 


GUITARRA 2: 


     Em 
E|--7-7----7-7--| 
B|--8-8----8-8--| 
G|--9-9----9-9--| 
D|--9-9----9-9--| 
A|--7-7----7-7--| 
E|--------------| 


    P.M................................................... 

E|--12-----12-----12------------12-----12-------------------| 
B|-----15-----13-----12--12-15-----15-----13--12-13--15-12--| 
G|----------------------------------------------------------| 
D|----------------------------------------------------------| 
A|----------------------------------------------------------| 
E|----------------------------------------------------------| 


    P.M....................... 

E|--12-----12-----12------------------------------| 
B|-----15-----13-----12--12-15--12-15--12-15--15--| 
G|------------------------------------------------| 
D|------------------------------------------------| 
A|------------------------------------------------| 
E|------------------------------------------------| 


Às vezes dá vontade de sumir 
Mas sumir é fugir 
É como enganar a verdade 
Não importa onde estiver 
Ainda vai ter que enfrentar a si mesmo 
Lembrei de alguém me dizer 
Alimente seu sonho pra ele não envelhecer 
É foda dominar meus medos 
Filtrar meus vícios, administrar desejos 

Quando um pesadelo invade o sono 
Muda o eixo, envenena os sentidos 
Não se entregue a esse vício 
Seja forte, e não omisso 

REFRÃO: 


E|----------------------------------------|    |------------| 
B|----------------------------------------|    |------------| 
G|-------------------------0---------0----| 4x |------------| 
D|-----------------------2---2-----4---4--|    |------------| 
A|--5h7-7-7-7-7-2----2-3-------3/5--------|    |--5-7--5-7--| 
E|--------------0--3----------------------|    |------------| 



Pra não perder o controle tem ser um monge 
Farol alto na estrada pra enxergar mais longe 
Se não a vida passa e você se esconde 
Se não a vida passa e você se esconde 

INTERLÚDIO: ( Em  Am ) (8x) 


E|------------------------------------------------------ 
B|------------------------------------------------------ 
G|------------------------------------------------------ 
D|------------------------------------------------------ 
A|--7-5-7-------------------------------------------------- 
E|--------5-3-5-------------------------------------------- 


E|------------------------------------------------------ 
B|------------------------------------------------------ 
G|------------------------------------------------------ 
D|------------------------------------------------------ 
A|------------------------------------------------------ 
E|------------------------------------------------------ 


E|------------------------------------------------------ 
B|------------------------------------------------------ 
G|------------------------------------------------------ 
D|------------------------------------------------------ 
A|------------------------------------------------------ 
E|------------------------------------------------------ 



REFRÃO: 


E|----------------------------------------|    |------------| 
B|----------------------------------------|    |------------| 
G|-------------------------0---------0----| 4x |------------| 
D|-----------------------2---2-----4---4--|    |------------| 
A|--5h7-7-7-7-7-2----2-3-------3/5--------|    |--5-7--5-7--| 
E|--------------0--3----------------------|    |------------| 


Pra não perder o controle tem ser um monge 
Farol alto na estrada pra enxergar mais longe 
Se não a vida passa e você se esconde 
Se não a vida passa, passa, passa. 

FINAL: 


E|----------------------------------| 
B|----------------------------------| 
G|----------------------------------|  3x 
D|----------------------------------| 
A|------3-3------2-2--3-2--5-7-5-7--| 
E|--3h5------3h5--------------------| 


E|-----------------------| 
B|-----------------------| 
G|-----------------------| 
D|-----------------------| 
A|------3-3------2-2-/6--| 
E|--3h5------3h5---------| 



E você se esconde 
E você se esconde 
  

cifra enviadasem correções
enviado porenviada por:hebealmeida
top 5 | nx zero
top punk rock
Outras músicas do artista letras do(a) Nx Zero
Top cifras »Top artistas »
Petaxxon Comunicação Online
Cifras.com.br - Melhor e mais completo site de cifras e tablaturas do Brasil
Mais de 1 milhão de acordes de músicas cadastradas desde 2003
As informações contidas no nosso site são colaborações de seus usuários e podem conter erros, sendo assim, não nos responsabilizamos sobre nenhuma destas.
close
menos
mais
close
Cor dos acordes:

Cor da letra:

 

save
close
close
 
redimensionar