Cifras e Tablaturas
O Terno

O Terno

Ai,ai Como Eu Me Iludo

Cifras Cancelar Versão de Impressão
cifras

O Terno - Ai,ai Como Eu Me Iludo

fixar na tela  
Exibindo: vídeo-aula ver clipes redimensionar

Tom:

  G: 
D|--------------------8/10--8------------------------------------------- 
A|---6----6--7--8---------------11----11--11--13--6------------6--- 
E|------------------------------------------------------------------6------ 

Parte A9: 
  G: 
D|--------------------8/10--8------------------------------ 
A|---6----6--7--8---------------11----11--11--13--6--- 
E: 

Parte B: 
  G: 
D|-----------------6-8-6---6h8-6-----------------------------------------------6-8-6-6h8-6------ 
A|---4-4-4-4/8--------------------8-6-6-6-6-6-6-8-8-8-8-8-8-4----4/8----------------------- 
E: 

Riff principal: 
G|----------------8h10-8-------8--- 
D|-----------10-------------10------ 
A|---8--11--------------------------- 
E: 

Parte C: 
  G: 
D|-----------------------------------3/13--------13-------------------------------3/13--------13--- 
A|---3-3-3-3-3-3-3-3-3-3-3-3------------13-------3-3---3-3---3-3---3-3----------------------- 
E|--------------------------------------------------------------------------------------------------------- 

G: 
  D: 
A|----------------------------------3--3-6-3---8-8---8-8---8-8---8-8-----------3-6--6----- 
E|---4-4-4-4-4-4-4-4-4-4-4-4--------------------------------------------4---4-------------- 
  

top 5 | o terno
top
Outras músicas do artista letras do(a) O Terno
Top cifras »Top artistas »
Petaxxon Comunicação Online
Cifras.com.br - Melhor e mais completo site de cifras e tablaturas do Brasil
Mais de 1 milhão de acordes de músicas cadastradas desde 2003
As informações contidas no nosso site são colaborações de seus usuários e podem conter erros, sendo assim, não nos responsabilizamos sobre nenhuma destas.
close
menos
mais
close
Cor dos acordes:

Cor da letra:

 

save
close
close
 
redimensionar