Cifras e Tablaturas
Oceans Ate Alaska

Oceans Ate Alaska

Floorboards

Cifras Cancelar Versão de Impressão
cifras

Oceans Ate Alaska - Floorboards

fixar na tela  
Exibindo: vídeo-aula ver clipes redimensionar
  
Tuning: Drop B 432Hz  

Intro 
C#|---------------------------------------------------------------------------| 
G#|-10------------------------------------------------------------------------| 
E |---------------------------------------------------------------------------| 
B |-7--------10--------------------7-8-7--------------------------------------| 
F#|-----8-------------------7-8-10-------8-10---------------------------------| 
B |---0---------8\---7-8-10-------------------7-8-10--------------------------| 

C#|--------0------------------------------------------------0----0------------| 
G#|-10-----0------------------------------------------------0----0------------| 
E |--------0---------------------------14-------------------0----0------------| 
B |-7--------------------------------15----------7-8-7------------------------| 
F#|-----8------------------------13--------------------8-10-------------------| 
B |---0-------0-0-0-0--0-0-0-0--------------------------------0-0--0-0-0------| 
              * * * *  * * * *                                * *  * * * 
Verse 
C#|---------------------------------------------------------------------------| 
G#|---------------------------------------------------------------------------| 
E |---------------------------------------------------------------------------| 
B |-7-8-7----------------7-8--------12\-------------7-8-7---7-8---------12\---| 
F#|-------8-10-----------------8-10------------8-10---------------8-10--------| 
B |------------7-8-10--0-----0----------7-8-10------------0-----0-------------| 

C#|-----------------------------------------------------0---------------------| 
G#|-----------------------------------------10----------0---------------------| 
E |-----------------------------------------------------0---------------------| 
B |---12---------10-8---------------7-8-7---7---------------------------------| 
F#|------10-8-5-------5--------8-10---------------8---------------------------| 
B |-0-------------------7-8-10-----------------0------0------0-0-0---0-0-0----| 

C#|---------------------------------------------------------------------------| 
G#|---------------------------------------------------------------------------| 
E |---------------------------------------------------------------------------| 
B |-7-8-7----------------7-8--------12\--7-8-7---------------7-8--------12\---| 
F#|-------8-10-----------------8-10------------8-10----------------8-10-------| 
B |------------7-8-10--0-----0----------------------7-8-10--0----0------------| 
  
C#|-------------------------------------0------------------------------5-8-5---| 
G#|----------------------------10-------0-----------------5-6------5-6-------7-| 
E |-------------------------------------0--------------------------------------| 
B |----------------------------7-----------------------------------------------| 
F#|----------------------------------8-----------------------------------------| 
B |-0--0-0-0----0---0---0-0-0-----0---------0-0-0-0---0-0------0-0-------------| 
    *  * * *    *   *   * * *               * * * *   * *      * *        
C#|----5-6-7-8--8-9-10-11-----------------------------------5-8-5--------------| 
G#|-------------------------------------------5-6------5--6-------7------------| 
E |----------------------------------------------------------------------------| 
B |----------------------------------------------------------------------------| 
F#|------------------------0-0-0-0----0-0-0-0----------------------------------| 
B |-0----------------------0-0-0-0----0-0-0-0------0-0--------------------------| 
                           * * * *    * * * * 
Chorus 
C#|---------------------------------------------------------------------------| 
G#|---------------------------------------------------------------------------| 
E |--12-12-12-12-12---16-16-16-16-16-16-16--12-12-12-12-12-12-12-12-----------| 
B |---------------------------------------------------------------------------| 
F#|--10-10-10-10-10---14-14-14-14-14-14-14--10-10-10-10-10-10-10-10-----------| 
B |---------------------------------------------------------------------------| 

C#|--------------------------12-------------------------------------------------| 
G#|-------------------------------12---13---------------------------------------| 
E |-17-17-17-16-16-16-14-14----------------12-----------------------------------| 
B |-----------------------------------------------------------------------------| 
F#|-15-15-15-14-14-14-12-12-----------------------------------------------------| 
B |-----------------------------------------------------------------------------| 

Verse 
C#|---------------------------------------------------------------------------| 
G#|-4/----11/---------------11--11------11------------------------------------| 
E |-7/----14/---------------14--14------14------------------------------------| 
B |---------------------------------------------------------------------------| 
F#|-----0----------------------------------------------0-2-1------------------| 
B |-----0------0-0-0--0-0-0--------0-0-0----0-0-0-0----0-2-1---0-0-0-0--------| 
        *      * * *  * * *        * * *    * * * *            * * * * 
C#|---------------------------------------------------------------------------| 
G#|-8/------------14-------14----14-------------------------------------------| 
E |-5/------------11-------11----11-------------------------------------------| 
B |---------------------------------------------------------------------------| 
F#|---------------------------------------------------------------------------| 
B |-----0-0-0---0-----0-0-0----0------0-0-0------6\---------------------------| 
        * * *   *     * * *    *      * * *  
C#|---------------------------------------------------------------------------| 
G#|---------------------------------------------------------------------------| 
E |---------------------------------------------------------------------------| 
B |---------------------------------------------------------------------------| 
F#|-0-2-1-0-1---0-2-1-0-1-----0-2-1-0-1---0-2-1-----0--0-0-0------------------| 
B |-0-2-1-0-1---0-2-1-0-1-----0-2-1-0-1---0-2-1-----1--1-1-1------------------| 
    * * * * *   * * * * *                 * * *     *  * * * 
C#|---------------------------------------------------------------------------| 
G#|---------------------------------------------------------------------------| 
E |---------------------------------------------------------------------------| 
B |------------------3--------------------3---------------------3-------------| 
F#|------------2-----1--1-----------2-----1--0-0-0-0-0-----2----1--1----------| 
B |-0-0-0---0--2--0-------2-0----0--2--0-----1-1-1-1-1--0--2--0------2-0------| 
            *     *              *     *     * * * * *  *     * 
C#|-------------------------------------7-7--12-8--------17-12----------12----17---| 
G#|-----------------------------------------------10-----------13----13----13------| 
E |------------------12-12--------7------------------12-----------14---------------| 
B |----------9-9-----------10-10----7-7--------------------------------------------| 
F#|----2---------7-7---------------------------------------------------------------| 
B |-0--2--0------------------------------------------------------------------------| 
    *     * 
C#|----------12--------------------------------------12-8----------8----12--17-12----------12----17--| 
G#|-13----13----------------------------------------------10----10---10-----------13----13----13-----| 
E |----14-------16-16----------12----12/14-------------------12----------------------14--------------| 
B |-------------------12/14-14----14--------9---5-7--------------------------------------------------| 
F#|-------------------------------------------7------------------------------------------------------| 
B |--------------------------------------------------------------------------------------------------| 

C#|--------------0-----0----------------| 
G#|--------------0-----0----------------| 
E |--------------0-----0----------------| 
B |---7-5---8-7-------------------------| 
F#|-5-----8-----------------------------| 
B |----------------0-0---0-0-0----------| 
                   * *   * * * 

C#|---------------------------------------------------------------------------| 
G#|---------------------------------------------------------------------------| 
E |---------------------------------------------------------------------------| 
B |-7-8-7----------------7-8--------12\-------------7-8-7---7-8---------12\---| 
F#|-------8-10-----------------8-10------------8-10---------------8-10--------| 
B |------------7-8-10--0-----0----------7-8-10------------0-----0-------------| 

C#|-----------------------------------------------------0---------------------| 
G#|-----------------------------------------10----------0---------------------| 
E |-----------------------------------------------------0---------------------| 
B |---12---------10-8---------------7-8-7---7---------------------------------| 
F#|------10-8-5-------5--------8-10---------------8---------------------------| 
B |-0-------------------7-8-10-----------------0------0------0-0-0---0-0-0--0-| 
  
C#|---------------------------------------------------------------------------| 
G#|---------------------------------------------------------------------------| 
E |---------------------------------------------------------------------------| 
B |-7-8--------12\----7-8-7-------------7-8-7---------------------------------| 
F#|------8-10---------------8-10--------------8-------------------------------| 
B |-----0-----0------------------7-8-10---------------------------------------| 

C#|---------------------------------------------------------------------------| 
G#|---------------------------------------------------------------------------| 
E |---------------------------------------------------------------------------| 
B |---------------------------------------------------------------------------| 
F#|-0-0-0-0-----0---0-0-0-0--0-0-0-0----0-0-0-0-----0-0--0-0-0-0--0-0-0-0--0--| 
B |-0-0-0-0-----0---0-0-0-0--0-0-0-0----0-0-0-0-----0-0--0-0-0-0--0-0-0-0--0--| 
    * * * *     *   * * * *  * * * *    * * * *     * *  * * * *  * * * *   

Bridge 
C#|-------7-------------------------7--------------------| 
G#|-----7---7----------7----------7---7----------7-------| 
E |---7-------7----7-----7------7-------7----7-----7-----| 
B |-9------------7---7-----7--5------------5---5-----5---|   (Repeated for the whole bridge) 
F#|------------------------------------------------------| 
B |------------------------------------------------------| 

Breakdown 
C#|---------------------------------------------------------------------------| 
G#|-----------------5/--------------------------------------------------------| 
E |-----------------8/--------------------------------------------------------| 
B |---------------------------------------------------------------------------| 
F#|-0---0-0-0---0-0------6-6-5-4-2-2-2-2-2-2-2--------------------------------| 
B |-1---1-1-1---1-1------7-7-6-5-3-3-3-3-3-3-3--------------------------------| 
    *   * * *   * *      * * * * * * * * * * * 
                       t 
C#|--------9------9----16-10-11-12-t------------------------------------------| 
G#|--------13-----13---------------16-10-11-12-t------------------------------| 
E |--------------------------------------------16-10-11-12-t------------------| 
B |--------------------------------------------------------16-10-11-12--------| 
F#|-0-------------------------------------------------------------------------| 
B |-1----0------0-------------------------------------------------------------| 
    *    *      *                                          t 
C#|---------------------t----------------------------------16-10-11-12----------------------| 
G#|---------------------16-10-11-12-t-----------------------------------7-7-7-7-7-7-7-7-----| 
E |---------------------------------16-10-11-12-t-----------------------1010101010101010----| 
B |---------------------------------------------16-10-11-12---------------------------------| 
F#|-0-----0-----0---------------------------------------------------------------------------| 
B |-1-----1-----1---------------------------------------------------------------------------| 
    *     *     * 
C#|---------------------------------------------------------------------------| 
G#|---------------------------------------------------------------------------| 
E |---------------------------------------------------------------------------| 
B |---------------------------------------------------------------------------| 
F#|-0-0-0-0-----0-0-0-0-0-0-0-0-----0-0-0-0--0-0-0-0--------------------------| 
B |-0-0-0-0-----0-0-0-0-0-0-0-0-----0-0-0-0--0-0-0-0--------------------------| 
    * * * *     * * * * * * * *     * * * *  * * * * 
C#|------------------------------------------------------------------------------------| 
G#|------------------------------------------------------------------------------------| 
E |------------------------------------------------------------------------------------| 
B |------------------------------------------------------------------------------------| 
F#|-0-0-0-0-----0-0-0-0-0-0-0-0---------0-0-0--0-0-0--0-0-0--0-0-0---------------------| 
B |-0-0-0-0-----0-0-0-0-0-0-0-0---------0-0-0--0-0-0--0-0-0--0-0-0---------------------| 
    * * * *     * * * * * * * *         * * *  * * *  * * *  * * * 
C#|---------------------------------------------------------------------------| 
G#|---------------------------------------------------------------------------| 
E |---------------------------------------------------------------------------| 
B |-7-8-7----------------7-8--------12\-------------7-8-7---7-8---------12\---| 
F#|-------8-10-----------------8-10------------8-10---------------8-10--------| 
B |------------7-8-10--0-----0----------7-8-10------------0-----0-------------| 

C#|-----------------------------------------------------------------------------| 
G#|-----------------------------------------------------------------------------| 
E |-----------------------------------------------------------------------------| 
B |---12---------10-8---------------7-8-7--------------7-8-7----7-8--------12\--| 
F#|------10-8-5-------5--------8-10---------------8-10----------------8-10------| 
B |-0-------------------7-8-10-------------7-8-10-------------0-----0-----------| 

C#|------------5-8-5-----5-6--7-8---8-9-10-11-------------------------5-8-5------| 
G#|-5-6----5-6-------7---------------------------------5-6-------5-6--------7----| 
E |------------------------------------------------------------------------------| 
B |------------------------------------------------------------------------------| 
F#|------------------------------------------------------------------------------| 
B |-----0--------------0-----------------------0-0-0-0-----0-0-------------------| 
                                               * * * * 
Chorus 
C#|--------------------------------------------------------------------------| 
G#|--------------------------------------------------------------------------| 
E |--12-12-12-12-12---16-16-16-16-16-16-16--12-12-12-12-12-12-12-12----------| 
B |--------------------------------------------------------------------------| 
F#|--10-10-10-10-10---14-14-14-14-14-14-14--10-10-10-10-10-10-10-10----------| 
B |--------------------------------------------------------------------------| 

C#|--------------------------12----------------------------------------------| 
G#|-------------------------------12---13------------------------------------| 
E |-17-17-17-16-16-16-14-14----------------12--------------------------------| 
B |--------------------------------------------------------------------------| 
F#|-15-15-15-14-14-14-12-12--------------------------------------------------| 
B |--------------------------------------------------------------------------| 

C#|--------------------------------------------------------------------------| 
G#|--------------------------------------------------------------------------| 
E |--12-12-12-12-12---16-16-16-16-16-----------------------------------------| 
B |--------------------------------------------------------------------------| 
F#|--10-10-10-10-10---14-14-14-14-14---5-5-5-5-5--5-5--5-5-5-5-5-------------| 
B |------------------------------------5-5-5-5-5--5-5--5-5-5-5-5-------------| 
                                       * * * * *  * *  * * * * * 
C#|--------------------------------------------------------------------------| 
G#|--------------------------------------------------------------------------| 
E |--12-12-12-12-12----------------------------------------------------------| 
B |--------------------------------------------------------------------------| 
F#|--10-10-10-10-10---5-5-5-5-5-------3----3----3----3-----------------------| 
B |-------------------5-5-5-5-5-------3----3----3----3-----------------------| 


************************************ 

| t   Tapping 
| /   Slide up 
| \   Slide down 
| *  Palm mute 

************************************ 
  

top 5 | oceans ate alaska
top diversos
Outras músicas do artista letras do(a) Oceans Ate Alaska
Top cifras »Top artistas »
Petaxxon Comunicação Online
Cifras.com.br - Melhor e mais completo site de cifras e tablaturas do Brasil
Mais de 1 milhão de acordes de músicas cadastradas desde 2003
As informações contidas no nosso site são colaborações de seus usuários e podem conter erros, sendo assim, não nos responsabilizamos sobre nenhuma destas.
close
menos
mais
close
Cor dos acordes:

Cor da letra:

 

save
close
close
 
redimensionar