Cifras e Tablaturas
Off

Off

Wiped Out

Cifras Cancelar Versão de Impressão Print

Off - Wiped Out

Tom:

  			

Riff 1: 
              
E||--------------------------|--------------------|| 
B||--------------------------|--------------------|| 
G||-----------------------9--|--7-----------------|| 
D||--9-----9--9--9--9--9--9--|--7--7----7----7----|| 
A||--9-----9--9--9--9--9--7--|--5--7----7----7----|| 
E||--7-----7--7--7--7--7-----|-----5----5----5----|| 


Riff 2: 
    
E||---------------------------|-----------------|| 
B||---------------------------|-----------------|| 
G||---------------------------|-----7--7--7--7--|| 
D||--2-----2--2--2--2--5/--7--|--7--7--7--7--7--|| 
A||--2-----2--2--2--2--5/--7--|--7--5--5--5--5--|| 
E||--0-----0--0--0--0--3/--5--|--5--------------|| 

Riff 3: 
   
E||---------------------------|-----|| 
B||---------------------------|-----|| 
G||---------------------------|-----|| 
D||--2-----2--2--2--2--5/--7--|--7--|| 
A||--2-----2--2--2--2--5/--7--|--7--|| 
E||--0-----0--0--0--0--3/--5--|--5--|| 

order: 

riff 1: x6 
riff 2: x2 
riff 1: x4 
riff 2: x2 
riff 1: x4 
riff 2: x2 
riff 1: x4 
riff 3: x1	 


************************************ 

| /   slide up 
| \   slide down 
| h   hammer-on 
| p   pull-off 
| ~   vibrato 
| +   harmonic 
| x   Mute note 
| b   Bend 
| pb  Pre-bend 
| br  Bend release 
| pbr Pre-bend release 
| brb Bend release bend 
    	
fixar
fixar inscrever-se

enviado porenviado por: andrsouza
cifra enviadaCorrigida por: sem correções
logo top cifrasComente
ico música do artistaMúsicas deste artista
ico curtiuCurtiu?
ico destaqueDestaque
Petaxxon Comunicação Online

Cifras.com.br - Melhor e mais completo site de cifras e tablaturas do Brasil Mais de 1 milhão de acordes de músicas cadastradas desde 2003
As informações contidas no nosso site são colaborações de seus usuários e podem conter erros, sendo assim, não nos responsabilizamos sobre nenhuma destas.

close
menos
mais
close
Cor dos acordes:

Cor da letra:

close
Alinhar acordes a direita Alinhar acordes a esquerda Alinhar acordes em baixo Alinhar acordes no topo
close
  Mostrar todos os acordes Esconder acordes muito fáceis Esconder acordes fáceis Esconder acordes intermediários
redimensionar
glossário