Cifras e Tablaturas
Oficina G3

Oficina G3

Continuar Tablatura Verificada

Ano: 2008
Compositor : (Gabriel Louback)

Cifras Cancelar Versão de Impressão
cifras

Oficina G3 - Continuar

fixar na tela  
Exibindo: vídeo-aula ver clipes redimensionar
  Intro and Verse:   

e|----------------------------------------------------|   
B|------1----------1---0----------1-------------------|   
G|--4-----4----4-----0--------4-----4-------3-------3-|   
D|----2----------2--------------2--------0--------0---|   
A|-0--------------------------------------------------|   
E|-----------3--------------3-----------1-------3-----|   

Pre-Chorus:   

e|----------8---------------------8---------------------8------|   
B|------8-----8-------------11------11--------------9-----9----|   
G|----8---8-----8--------10----10------10---------8---8------8-|   
D|-10----------------------------------------------------------|   
A|--------------------10----------------------11---------------|   
E|-------------------------------------------------------------|   

e|------------------------|   
B|------------------------|   
G|------------------------|   
D|-------13------------12-|   
A|----13----13------13----|   
E|-11------------10-------|   

e|----------8---------------------8---------------------8------|   
B|------8-----8-------------11------11--------------9-----9----|   
G|----8---8-----8--------10----10------10---------8---8------8-|   
D|-10----------------------------------------------------------|   
A|--------------------10----------------------11---------------|   
E|-------------------------------------------------------------|   

e|---------9-------|   
B|------11---11----|   
G|---10---------10-|   
D|-8---------------|   
A|-----------------|   
E|-----------------|   

Piano:   

e|-------5-------------3-------------3p0---0-|   
B|-----5---5---------3---3-------0h1-----3---|   
G|---5-------5-----4-------4-----------------|   
D|-7-------------5-------------3-------------|   
A|-------------------------------------------|   
E|-------------------------------------------|   


Chorus:   

e|----3-----------------------------------------|--------0--|   
B|----1-------1---0--------1------------1---0---|--------3--|   
G|----0---4-----0--------4---4------4-----0-----|(2x)----2--|   
D|----3-----2----------2-------2------2---------|--------0--|   
A|-------------------0--------------------------|-----------|   
E|-1----3-------------------------3-------------|-----------|   

Interlude: Am9 Am9/G F9   

e|----------------------------------------------------------|   
B|-------1-------------1------------1-----------------------|   
G|---4-----4-------4-----4--------0---0-------5---7---5---3-|   
D|-----2-------------2-----2----3-------3-------------------|   
A|-0------------------------------------------3---5---3---1-|   
E|-------------3--------------1-----------------------------|   


Verse:   


e|----------------------------------------------------|   
B|------1----------1---0----------1-------------------|   
G|--4-----4----4-----0--------4-----4-------3-------3-|   
D|----2----------2--------------2--------0--------0---|   
A|-0--------------------------------------------------|   
E|-----------3--------------3-----------1-------3-----|     

Pre-Chorus:   

e|----------8---------------------8---------------------8------|   
B|------8-----8-------------11------11--------------9-----9----|   
G|----8---8-----8--------10----10------10---------8---8------8-|   
D|-10----------------------------------------------------------|   
A|--------------------10----------------------11---------------|   
E|-------------------------------------------------------------|   

e|------------------------|   
B|------------------------|   
G|------------------------|   
D|-------13------------12-|   
A|----13----13------13----|   
E|-11------------10-------|   

e|----------8---------------------8-----------|   
B|------8-----8-------------11------11--------|   
G|----8---8-----8--------10----10------10-----|   
D|-10-----------------------------------------|   
A|--------------------10----------------------|   
E|--------------------------------------------|   

e|----------------------------------|   
B|----------------------------------|   
G|----------------------------------|   
D|----------------------------------|   
A|-6-6-6-6-6-6-----8-8-8-8-8-8\3--3-|   
E|-4-4-4-4-4-4-----6-6-6-6-6-6\1--1-|   

Chorus: F5 G5 A5   

e|--------------------------------------------------------------|   
B|--------------------------------------------------------------|   
G|------------------5p4---5p4-----------------------------------|   
D|----------------5-----5---------------------5-7-5-------------|   
A|-3---5---7---5---------------3---5---7---5--------7-5-3-------|   
E|-1---3---5---3---------------1---3---5---3--------------7-3-4-|   


Bridge: Ab9 Eb5 Db5 F5 Ab5 Eb5 D5   

e|----------------------------------------|   
B|----4-----------------------------------|   
G|----3--------------3--1--0--------------|   
D|--------8---6----------------------8--7-|   
A|--------6---4---/4-----------3--6--6--5-|   
E|--------6---4----------------1--4--6--5-|   

Pre-Solo:   

e|-----------------------------|   
B|-----------------------------|   
G|-----------------------------|   
D|-3---7---3---7---7-7-7-7-7-7-|   
A|-3---5---3---5---5-5-5-5-5-5-|   
E|-1---5---1---5---5-5-5-5-5-5-|   

Solo:   

e|-15-13-11----13-11-------11-----------------------------------|   
B|----------15-------15-13----15-13-11--15-13-11----13-11-------|   
G|-----------------------------------------------13-------13-12-|   
D|--------------------------------------------------------------|   
A|--------------------------------------------------------------|   
E|--------------------------------------------------------------|   

e|------------------------------------------------------------|   
B|-11------------13b16-13b16r13--11-13--11-13-15-11-13--11----|   
G|----13-12-10------------------------------------------------|   
D|------------------------------------------------------------|   
A|------------------------------------------------------------|   
E|------------------------------------------------------------|   

e|--15-16-15h16p15p13-15---------------------------------|   
B|--x--------------------16------------------------------|   
G|--x-----------------------15--12h13p12----12-----------|   
D|--x------------------------------------15----13-15-10--|   
A|-------------------------------------------------------|   
E|-------------------------------------------------------|   

e|--------------11h15p11-------------15-18b20-t20p18---------|   
B|-----------13----------13-------16-------------------18b20-|   
G|--------12----------------12/17----------------------------|   
D|-----13----------------------------------------------------|   
A|--15-------------------------------------------------------|   
E|-----------------------------------------------------------|   

e|-15-16-18-16-15-----------18-16-15----------18-16-15----------|   
B|----------------18-16-15-----------18-16-15----------18-16-15-|   
G|--------------------------------------------------------------|   
D|--------------------------------------------------------------|   
A|--------------------------------------------------------------|   
E|--------------------------------------------------------------|   

e|-----------------------------15-----------------------|   
B|--------------------15-16-18----21b23-(23)-(23)-------|   
G|----------12-13-15------------------------------------|   
D|-12-13-15---------------------------------------------|   
A|------------------------------------------------------|   
E|------------------------------------------------------|   

End Chorus:   

e|-3---------------------------3-------------------------|   
B|-3----------------3p2---3p2--3-------------------------|   
G|-0---2---4---2--2-----2------0---2---------------------|   
D|-0---2---4---2---------------0---2---------------------|   
A|-----0---2---0-------------------0---2-0-2-5-2-0-------|   
E|-3---------------------------3-------------------2-0-2-|   


e|-3---------------------------3-----------------------|   
B|-3----------------3p2---3p2--3---------------3-------|   
G|-0---2---4---2--2-----2------0---2---4---2---2-------|   
D|-0---2---4---2---------------0---2---4---2---0--4--2-|   
A|-----0---2---0-------------------0---2---0------4--2-|   
E|-3---------------------------3------------------2--0-|   

End:   

e|----------------------------------------------------|   
B|------1----------1---0----------1-------------------|   
G|--4-----4----4-----0--------4-----4-------3-------3-|   
D|----2----------2--------------2--------0--------0---|   
A|-0--------------------------------------------------|   
E|-----------3--------------3-----------1-------3-----|   

e|------------------------------------------------------0-|   
B|------1----------1---0----------1---------------------0-|   
G|--4-----4----4-----0--------4-----4-------3-------3---2-|   
D|----2----------2--------------2--------0--------0-----2-|   
A|-0----------------------------------------------------0-|   
E|-----------3--------------3-----------1-------3---------|   





  

cifra enviadacorrigido por:Ruanzera
enviado porenviada por:coxinha52
top 5 | oficina g3
top gospel
Outras músicas do artista letras do(a) Oficina G3
Top cifras »Top artistas »
Petaxxon Comunicação Online
Cifras.com.br - Melhor e mais completo site de cifras e tablaturas do Brasil
Mais de 1 milhão de acordes de músicas cadastradas desde 2003
As informações contidas no nosso site são colaborações de seus usuários e podem conter erros, sendo assim, não nos responsabilizamos sobre nenhuma destas.
close
menos
mais
close
Cor dos acordes:

Cor da letra:

 

save
close
close
 
redimensionar