Cifras e Tablaturas
Cifras Cancelar Versão de Impressão
cifras

Olivver The Kid - 4am

fixar na tela  
Exibindo: vídeo-aula ver clipes redimensionar

Tom:

  
Main Riff 

e|---------------------------------0-------8-7-5-3-----8-7---0---------------| 
B|-----1--------3-1-----0-1--------3-1-----5-5-3-0-----5-5--/3-2-------------| 
G|-----2--------2-2-----2-2--------2-2---------------------------------------| 
D|-----------------------------------------0-0-0-0-----0-0---0---------------| 
A|--0--------0------------------0--------------------------------------------| 
E|---------------------------------------------------------------------------| 

Just repeat this until the Chorus. 

Chorus 

e|----------0-Hold-| 
B|--------1--------| 
G|------2----------| 
D|----2------------|  
A|--0--------------|  
E|-----------------| 

 
  

top 5 | olivver the kid
top rock'n roll
Outras músicas do artista letras do(a) Olivver The Kid
3.
Hell
4.
4am
Top cifras »Top artistas »
Petaxxon Comunicação Online
Cifras.com.br - Melhor e mais completo site de cifras e tablaturas do Brasil
Mais de 1 milhão de acordes de músicas cadastradas desde 2003
As informações contidas no nosso site são colaborações de seus usuários e podem conter erros, sendo assim, não nos responsabilizamos sobre nenhuma destas.
close
menos
mais
close
Cor dos acordes:

Cor da letra:

 

save
close
close
 
redimensionar