Cifras e Tablaturas
One Piece

One Piece

We Fight Together

Cifras Cancelar Versão de Impressão
cifras

One Piece - We Fight Together

fixar na tela  
Exibindo: vídeo-aula ver clipes redimensionar
  
Intro 
e|-------------0----------|-------------0----------|-------------0----------|-----------| 
B|-3--2--3--2-----3--2--3-|-3--2--3--2-----3--2--3-|-3--2--3--2-----3--2--3-|--3--2--3-3| 
G|------------------------|------------------------|------------------------|-----------| 
D|------------------------|------------------------|------------------------|-----------| 
A|------------------------|------------------------|------------------------|-----------| 
E|------------------------|------------------------|------------------------|-----------| 
Verse 
e|-------------------------0--2--3--2|----------------------0--2--3--2------| 
B|-3--3--0--3--3--3--0--3------------|-3--3--0--3--3--0--3--------------3---| 
G|-----------------------------------|--------------------------------------| 
D|-----------------------------------|--------------------------------------| 
A|-----------------------------------|--------------------------------------| 
E|-----------------------------------|--------------------------------------| 

e|-------2--2--0-----0----------|-5--2--0--2--0-----0--2--0--|-5--2--0-0---0-----0-----0--2---| 
B|-0--3-----------3-----0--3--3-|---------------3-----------3|----------------3-----3--------3| 
G|------------------------------|----------------------------|--------------------------------| 
D|------------------------------|----------------------------|--------------------------------| 
A|------------------------------|----------------------------|--------------------------------| 
E|------------------------------|----------------------------|--------------------------------| 

e|-5--5--2--5--5--2--5-5-5-2-2-3-3-2-|----3-3-2-2-0--------|-7-7-7-7-| 
B|-----------------------------------|--3-----------0--3-3-|---------| 
G|-----------------------------------|---------------------|---------| 
D|-----------------------------------|---------------------|---------| 
A|-----------------------------------|---------------------|---------| 
E|-----------------------------------|---------------------|---------| 
Pre-Chorus 
e|--7--7--5--7--2--0-----0--0-----0--2|-------------0-----2--2--2--0-----0----| 
B|--------------------3--------3------|-0--0--0--3-----3--------------3-----0-| 
G|------------------------------------|---------------------------------------| 
D|------------------------------------|---------------------------------------| 
A|------------------------------------|---------------------------------------| 
E|------------------------------------|---------------------------------------| 

e|--7--7--5--7--2--0-----0--0-----0--2|-2--2--3--2--2--0---------5--5---------| 
B|--------------------3--------3------|-------------------3--3----------------| 
G|------------------------------------|---------------------------------------| 
D|------------------------------------|---------------------------------------| 
A|------------------------------------|---------------------------------------| 
E|------------------------------------|---------------------------------------| 
Chorus 
e|-2--2--3/5-5--2--5--3--2--0--3--2--0-----0--2|-2--2--3--5/7-5--2-5-3-2-0-3-2-0----5--2--0--0-| 
B|--------------------------------------3------|---------------------------------3----------3-3| 
G|---------------------------------------------|-----------------------------------------------| 
D|---------------------------------------------|-----------------------------------------------| 
A|---------------------------------------------|-----------------------------------------------| 
E|---------------------------------------------|-----------------------------------------------| 

e|------------0--------|------------0---0--2|-2--0----5--5----2---0------| 
B|-3--2--3--2---3--2--3|-3--2--3--2---3-----|-------3-------3---3---3----| 
G|---------------------|--------------------|----------------------------| 
D|---------------------|--------------------|----------------------------| 
A|---------------------|--------------------|----------------------------| 
E|---------------------|--------------------|----------------------------| 

Bridge                                                                         Play this twice 
e|---0--2--5--2--0-------|--------5-2-0----7--5--2--0----0--2--3--2--0----0---|--5-5-5-3-3-2-2-0-0------| 
B|-3----------------3--0-|--3-3-3--------3-------------3----------------3---3-|-----------------------3--3-----| 
G|-----------------------|----------------------------------------------------|------------------------------| 
D|-----------------------|----------------------------------------------------|------------------------------| 
A|-----------------------|----------------------------------------------------|------------------------------| 
E|-----------------------|----------------------------------------------------|-----------------------------| 

e|-2------0--2--5--7/9--7--5--7--2--5-----------------------------| 
B|---2--3---------------------------------------------------------| 
G|----------------------------------------------------------------| 
D|----------------------------------------------------------------| 
A|----------------------------------------------------------------| 
E|----------------------------------------------------------------| 
 
  

top 5 | one piece
top pop music
Outras músicas do artista letras do(a) One Piece
Top cifras »Top artistas »
Petaxxon Comunicação Online
Cifras.com.br - Melhor e mais completo site de cifras e tablaturas do Brasil
Mais de 1 milhão de acordes de músicas cadastradas desde 2003
As informações contidas no nosso site são colaborações de seus usuários e podem conter erros, sendo assim, não nos responsabilizamos sobre nenhuma destas.
close
menos
mais
close
Cor dos acordes:

Cor da letra:

 

save
close
close
 
redimensionar