Cifras e Tablaturas
One-T

One-T

The Magic Key (ver. Acoustic)

Cifras Cancelar Versão de Impressão
cifras

One-T - The Magic Key (ver. Acoustic)

fixar na tela  
Exibindo: vídeo-aula ver clipes redimensionar

Tom:

  
Intro 

e|----0-----0----------0-----0---------3p2p0----------------x-x--------------| 
B|------0-----0---0------3-----3---3---------3p0-----x------x-x--------------| 
G|--------0-----0----------2-----2---------------2p0-2/4/2--x-x--------------| 
D|---------------------------------------------------2/4/2--x-x--------------| 
A|---------------------------------------------------0------x-x--------------| 
E|-0-----------------2---------------3---------------x------x-x--------------| 

Verse 

Like intro or you can use chord's e-moll | dsad | G-durr | A-durr 

e|----0-----0----------0-----0---------3p2p0----------------x-x--------------| 
B|------0-----0---0------3-----3---3---------3p0-----x------x-x--------------| 
G|--------0-----0----------2-----2---------------2p0-2/4/2--x-x--------------| 
D|---------------------------------------------------2/4/2--x-x--------------| 
A|---------------------------------------------------0------x-x--------------| 
E|-0-----------------2---------------3---------------x------x-x--------------| 

Dsad 
e|-x-| 
B|-2-| 
G|-3-| 
D|-0-| 
A|-0-| 
E|-2-| 



Chorus 

Like intro or you can use chord's e-moll | dsad | G-durr | A-durr 

e|----0-----0----------0-----0---------3p2p0----------------x-x--------------| 
B|------0-----0---0------3-----3---3---------3p0-----x------x-x--------------| 
G|--------0-----0----------2-----2---------------2p0-2/4/2--x-x--------------| 
D|---------------------------------------------------2/4/2--x-x--------------| 
A|---------------------------------------------------0------x-x--------------| 
E|-0-----------------2---------------3---------------x------x-x--------------| 


Outro 


e|----0-----0----------0-----0---------3p2p0---------------0-5-----| 
B|------0-----0---0------3-----3---3---------3p0---------2---------| 
G|--------0-----0----------2-----2---------------2p0---2-----------| 
D|-----------------------------------------------------------------| 
A|---------------------------------------------------0-------------| 
E|-0-----------------2---------------3-----------------------------| 


************************************ 

| x   Dead note 
| h   Hammer-on 
| p   Pull-off 
| /   Slide up 
| \   Slide down 

************************************ 
  

top 5 | one-t
top rock'n roll
Outras músicas do artista letras do(a) One-T
Top cifras »Top artistas »
Petaxxon Comunicação Online
Cifras.com.br - Melhor e mais completo site de cifras e tablaturas do Brasil
Mais de 1 milhão de acordes de músicas cadastradas desde 2003
As informações contidas no nosso site são colaborações de seus usuários e podem conter erros, sendo assim, não nos responsabilizamos sobre nenhuma destas.
close
menos
mais
close
Cor dos acordes:

Cor da letra:

 

save
close
close
 
redimensionar