Cifras e Tablaturas
Opeth

Opeth

Sorceress

Cifras Cancelar Versão de Impressão
cifras

Opeth - Sorceress

fixar na tela  
Exibindo: vídeo-aula ver clipes redimensionar
  
Intro 

Swing 1/8 notes 
e|----------------|----------------|----------------|----------------| 
B|----------------|----------------|----------------|7-----4---------| 
G|----------------|----------------|----------5-----|--5---------5---| 
D|------7-----7-9-|7---7-----------|-------/7-------|----7---7-----4-| 
A|0-6-8-----8-----|--8---8-6-8-6-2-|0---------------|----------0-----| 
A|----------------|----------------|----------------|----------------| 
                                                                      x2 
e|----------------|----------------|----------------|------8---------| 
B|----------------|----------------|----------------|----7---7-----7-| 
G|----------------|----------------|----------5-----|--5-------5---5-| 
D|------7-----7-9-|7---7-----------|-------/7-------|5-----------6---| 
A|0-6-8-----8-----|--8---8-6-8-6-2-|0---------------|----------------| 
A|----------------|----------------|----------------|----------------| 

e|----------------|------5-----5---|----------------|----------------| 
B|----7-7-----7---|7-7---7-----7---|----4-7-------8-|7-4---7-6-4---7-| 
G|----5-5-----5---|5-5-------------|--5---------5---|----5-------5---| 
D|----------------|----------------|4---------------|----------------| 
A|3-3-------3---3-|----------------|----------------|----------------| 
A|----------------|----------------|----------------|----------------| 

e|----------------|----------------|----------------|----------------| 
B|----------------|----------------|----------------|7-----4---------| 
G|----------------|----------------|----------5-----|--5---------5---| 
D|------7-----7-9-|7---7-----------|-------/7-------|----7---7-----4-| 
A|0-6-8-----8-----|--8---8-6-8-6-2-|0---------------|----------0-----| 
A|----------------|----------------|----------------|----------------| 
                                                                      x2 
e|----------------|----------------|----------------|------8---------| 
B|----------------|----------------|----------------|----7---7-----7-| 
G|----------------|----------------|----------5-----|--5-------5---5-| 
D|------7-----7-9-|7---7-----------|-------/7-------|5-----------6---| 
A|0-6-8-----8-----|--8---8-6-8-6-2-|0---------------|----------------| 
A|----------------|----------------|----------------|----------------| 

e|----------------|------5-----5---|----------------|----------------| 
B|----7-7-----7---|7-7---7-----7---|----4-7-------8-|7---------------| 
G|----5-5-----5---|5-5-------------|--5---------5---|--------6-------| 
D|----------------|----------------|4---------------|----5-----5-----| 
A|3-3-------3---3-|----------------|----------------|------4-----4---| 
A|----------------|----------------|----------------|------------(10)|<--played by Bass 


Verse 

e|--------------------------------|--------------------------------| 
B|--------------------------------|--------------------------------| 
G|--------------------------------|--------------------------------| 
D|2---2---2---2---2---2---2---2---|2---2---2---2---2---2---2---2---| 
A|0---0---0---0---0---0---0---0---|0---0---0---0---0---0---0---0---| 
A|0---0---0---0---0---0---0---0---|0---0---0---0---0---0---0---0---| 

e|--------------------------------|----------------------------0-0-| 
B|--------------------------------|----------------------------1-1-| 
G|--------------------------------|----------------------------2-2-| 
D|2---2---2---2---2---2---2---2---|2---2---2---2---2---2---2---2-2-| 
A|0---0---0---0---0---0---0---0---|0---0---0---0---0---0---0-------| 
A|0---0---0---0---0---0---0---0---|0---0---0---0---0---0---0-------| 

e|0-0-------------------------0-0-|0-0-------------------------0-0-| 
B|1-1-------------------------1-1-|1-1-----3-------------------1-1-| 
G|2-2-------------------------2-2-|2-2-2---2-------------------2-2-| 
D|2-2-2---2---2---2-2-2---2---2-2-|2-2-2---0-------2-2-2---2---2-2-| x5 
A|----0---0---0---0-0-0---0-------|----0-----------0-0-0---0-------| 
A|----0---0---0---0-0-0---0-------|----0-----------0-0-0---0-------| 

e|0-0-------------------------0-0-|0-0-----------------------------| 
B|1-1-------------------------1-1-|1-1-----3-----------------------| 
G|2-2-------------------------2-2-|2-2-2---2-----------------------| 
D|2-2-2---2---2---2-2-2---2---2-2-|2-2-2---0-------2-2-5-----4-----| 
A|----0---0---0---0-0-0---0-------|----0-----------0-0-3-----2-----| 
A|----0---0---0---0-0-0---0-------|----0-----------0-0-3-----2-----| 


Chorus 

e|--------------------------------|--------------------------------| 
B|--------------------------------|--------------------------------| 
G|--------------------------------|--------------------------------| 
D|3-------------------------------|--------------------------------| 
A|1-----------0---------------0-0-|------0-----0-------------------| 
A|1-----------0---------------0-0-|3-----0-3-5-0------10-12-12~----| 

e|--------------------------------|----------------------------0-0-| 
B|--------------------------------|----------------------------1-1-| 
G|--------------------------------|----------------------------2-2-| 
D|--------------------------------|----------------------------2-2-| 
A|------------0---------------0-0-|------0-----0-------------------| 
A|pb7r5-------0---------------0-0-|3-----0-3-5-0------10-12-12-----| 


Verse 

e|0-0-------------------------0-0-|0-0-------------------------0-0-| 
B|1-1-------------------------1-1-|1-1-----3-------------------1-1-| 
G|2-2-------------------------2-2-|2-2-2---2-------------------2-2-| 
D|2-2-2---2---2---2-2-2---2---2-2-|2-2-2---0-------2-2-2---2---2-2-| x5 
A|----0---0---0---0-0-0---0-------|----0-----------0-0-0---0-------| 
A|----0---0---0---0-0-0---0-------|----0-----------0-0-0---0-------| 

e|0-0-------------------------0-0-|0-0-----------------------------| 
B|1-1-------------------------1-1-|1-1-----3-----------------------| 
G|2-2-------------------------2-2-|2-2-2---2-----------------------| 
D|2-2-2---2---2---2-2-2---2---2-2-|2-2-2---0-------2-2-5-----4-----| 
A|----0---0---0---0-0-0---0-------|----0-----------0-0-3-----2-----| 
A|----0---0---0---0-0-0---0-------|----0-----------0-0-3-----2-----| 


Chorus 

e|--------------------------------|--------------------------------| 
B|--------------------------------|--------------------------------| 
G|--------------------------------|--------------------------------| 
D|3-------------------------------|--------------------------------| 
A|1-----------0---------------0-0-|------0-----0-------------------| 
A|1-----------0---------------0-0-|3-----0-3-5-0------10-12-12~----| 

e|--------------------------------|--------------------------------| 
B|--------------------------------|--------------------------------| 
G|--------------------------------|--------------------------------| 
D|--------------------------------|--------------------------------| 
A|------------0---------------0-0-|------0-----0-------------------| 
A|pb7r5-------0---------------0-0-|3-----0-3-5-0------10-12-12~----| 


Interlude 

e|--------------------------------|--------------0-----------------| 
B|--------------------------------|--0---------0-----------0-------| 
G|--------------------------------|0---------0-----------0---------| 
D|------------------------------2-|--------5-----------6-----------| 
A|0---1---3-----0-4-3-0---0---1---|------4-----------5---------6-5-| 
A|--------------------------------|--------------------------------| 

e|--------------------------------|--------------0---------5-------| 
B|--------------------------------|--0-----0---0---------6-6---7---| 
G|------------------------------3-|----------0---------5---------6-| 
D|----------------------------5---|5-----6-----------7---------8---| 
A|0---1---3-----0-4-3-0---0-------|--------------------------------| 
A|--------------------------------|--------------------------------| 

e|--------------------------------|--------------0-----------------| 
B|--------------------------------|--0---------0-----------0-------| 
G|--------------------------------|0---------0-----------0---------| 
D|------------------------------2-|--------5-----------6-----------| 
A|0---1---3-----0-4-3-0---0---1---|------4-----------5---------6-5-| 
A|0---1---3-----0-4-3-0---0-------|--------------------------------| 

e|--------------------------------|--------------0---------5-------| 
B|--------------------------------|--0-----0---0---------6-6---7---| 
G|------------------------------3-|----------0---------5---------6-| 
D|----------------------------5---|5-----6-----------7---------8---| 
A|0---1---3-----0-4-3-0---0-------|--------------------------------| 
A|0---1---3-----0-4-3-0---0-------|--------------------------------| 


Bridge 

e|--------------------------------|--------------------------------| 
B|--------------------------------|--------------------------------| 
G|--------------------------------|--------------------------------| 
D|--------------------------------|--------------------------------| x4 
A|12--10--0-0-0-7---5---0-3---1---|0-0-0-0-3-5-0-0--10-12--0-12--0-| 
A|12--10--0-0-0-7---5---0-3---1---|0-0-0-0-3-5---0--10-12--0-12--0-| 

e|--------------------------------|--------------------------------| 
B|--------------------------------|--------------------------------| 
G|--------------------------------|--------------------------------| 
D|7-------10------9-------5-------|2-------------------------------| 
A|5-------8-------7-------3-------|0-------------------------------| 
A|5-------8-------7-------3-------|0-------------------------------| 
     
e|--------------------------------|---------------17~--------------| 
B|--------------------------------|--------------------------------| 
G|--------------------------------|--------------------------------| 
D|--------------------------------|--------------------------------| 
A|--------------------------------|--------------------------------| 
A|--------------------------------|--------------------------------| 
 |   
e|--------------------------------|--------------------------------| 
B|--------------------------------|--------------------------------| 
G|--------------------------------|--------------------------------| 
D|7-------10------9-------5-------|2-------------------------------| 
A|5-------8-------7-------3-------|0-------------------------------| 
A|5-------8-------7-------3-------|0-------------------------------| 


Guitar Solo 

e|(17)~---------------------------|15--17--15----------------------| 
B|--------------------------------|--------------------------------| 
G|--------------------------------|--------------------------------| 
D|--------------------------------|--------------------------------| 
A|--------------------------------|--------------------------------| 
A|--------------------------------|--------------------------------| 
 | 
e|0-0-------------------------0-0-|0-0-------------------------0-0-| 
B|1-1-------------------------1-1-|1-1-----3-------------------1-1-| 
G|2-2-------------------------2-2-|2-2-2---2-------------------2-2-| 
D|2-2-2---2---2---2-2-2---2---2-2-|2-2-2---0-------2-2-2---2---2-2-| 
A|----0---0---0---0-0-0---0-------|----0-----------0-0-0---0-------| 
A|----0---0---0---0-0-0---0-------|----0-----------0-0-0---0-------| 


e|11b12---------------------------|11b12~--------------------------| 
B|--------------------------------|--------------------------------| 
G|--------------------------------|--------------------------------| 
D|--------------------------------|--------------------------------| 
A|--------------------------------|--------------------------------| 
A|--------------------------------|--------------------------------| 
 | 
e|0-0-------------------------0-0-|0-0-------------------------0-0-| 
B|1-1-------------------------1-1-|1-1-----3-------------------1-1-| 
G|2-2-------------------------2-2-|2-2-2---2-------------------2-2-| 
D|2-2-2---2---2---2-2-2---2---2-2-|2-2-2---0-------2-2-2---2---2-2-| 
A|----0---0---0---0-0-0---0-------|----0-----------0-0-0---0-------| 
A|----0---0---0---0-0-0---0-------|----0-----------0-0-0---0-------| 


e|8-------------------------------|----------------------------0-0-| 
B|--------------------------------|--------3-------------------1-1-| 
G|--------------------------------|--------2-------------------2-2-| 
D|--------------------------------|--------0-------2-2-2---2---2-2-| 
A|--------------------------------|----------------0-0-0---0-------| 
A|--------------------------------|----------------0-0-0---0-------| 
 | 
e|0-0-------------------------0-0-|0-0-------------------------0-0-| 
B|1-1-------------------------1-1-|1-1-----3-------------------1-1-| 
G|2-2-------------------------2-2-|2-2-2---2-------------------2-2-| 
D|2-2-2---2---2---2-2-2---2---2-2-|2-2-2---0-------2-2-2---2---2-2-| 
A|----0---0---0---0-0-0---0-------|----0-----------0-0-0---0-------| 
A|----0---0---0---0-0-0---0-------|----0-----------0-0-0---0-------| 


Verse 

e|0-0-------------------------0-0-|0-0-------------------------0-0-| 
B|1-1-------------------------1-1-|1-1-----3-------------------1-1-| 
G|2-2-------------------------2-2-|2-2-2---2-------------------2-2-| 
D|2-2-2---2---2---2-2-2---2---2-2-|2-2-2---0-------2-2-2---2---2-2-| x2 
A|----0---0---0---0-0-0---0-------|----0-----------0-0-0---0-------| 
A|----0---0---0---0-0-0---0-------|----0-----------0-0-0---0-------| 

e|0-0-------------------------0-0-|0-0-----------------------------| 
B|1-1-------------------------1-1-|1-1-----3-----------------------| 
G|2-2-------------------------2-2-|2-2-2---2-----------------------| 
D|2-2-2---2---2---2-2-2---2---2-2-|2-2-2---0-------2-2-5-----4-----| 
A|----0---0---0---0-0-0---0-------|----0-----------0-0-3-----2-----| 
A|----0---0---0---0-0-0---0-------|----0-----------0-0-3-----2-----| 


Chorus 

e|--------------------------------|--------------------------------| 
B|--------------------------------|--------------------------------| 
G|--------------------------------|--------------------------------| 
D|3-------------------------------|--------------------------------| 
A|1-----------0---------------0-0-|------0-----0-------------------| 
A|1-----------0---------------0-0-|3-----0-3-5-0------10-12-12~----| 

e|--------------------------------|--------------------------------| 
B|--------------------------------|--------------------------------| 
G|--------------------------------|--------------------------------| 
D|--------------------------------|--------------------------------| 
A|------------0---------------0-0-|------0-----0-------------------| 
A|pb7r5-------0---------------0-0-|3-----0-3-5-0------10-12-12~----| 


Keyboard Solo 

e|12----10--10-12--10-12-13-------|8-------------------------------| 
B|--------10---------------10-----|-----10-8-----------------------| 
G|--------------------------------|----------7---------------------| 
D|--------------------------------|-----------10-9---------5-------| 
A|--------------------------------|--------------------------------| 
A|--------------------------------|--------------------------------| 

e|--------------------------------|--------------8-10--------------| 
B|------------6-8-----------------|------------8-------------------| 
G|------5-7-8-----7-------5-------|------7-8-10--------------------| 
D|6-------------------------------|9-------------------------------| 
A|--------------------------------|--------------------------------| 
A|--------------------------------|--------------------------------| 


Outro 

e|12~---10--10-12--10h12h13-------|8~------------------------------| 
B|--------10---------------10~----|-----10p8-----------------------| 
G|--------------------------------|----------7---------------------| 
D|--------------------------------|-----------10p9~--------5------/| 
A|--------------------------------|--------------------------------| 
A|--------------------------------|--------------------------------| 
                                                                    x4 
e|--------------------------------|--------------8-10~-------------| 
B|------------6h8-----------------|------------8-------------------| 
G|------5h7h8-----7~------5-------|------7h8h10--------------------| 
D|6------------------------------/|9-------------------------------| 
A|--------------------------------|--------------------------------| 
A|--------------------------------|--------------------------------| 


End 

e|--------------------------------|--------------------------------| 
B|--------------------------------|--------------------------------| 
G|5-------------------------------|--------------------------------| 
D|5-------------------------------|--------------------------------| 
A|3-------------------------------|--------------------------------| 
A|3-------------------------------|--------------------------------| 



*********************************** 
| /   Slide up 
| h   Hummer-on 
| p   Pull-off 
| ~   Vibrato 
| b   Bend 
| pb  Pre-bend 
| r  Release 
*********************************** 
  

top 5 | opeth
top rock alternativo
Outras músicas do artista letras do(a) Opeth
Top cifras »Top artistas »
Petaxxon Comunicação Online
Cifras.com.br - Melhor e mais completo site de cifras e tablaturas do Brasil
Mais de 1 milhão de acordes de músicas cadastradas desde 2003
As informações contidas no nosso site são colaborações de seus usuários e podem conter erros, sendo assim, não nos responsabilizamos sobre nenhuma destas.
close
menos
mais
close
Cor dos acordes:

Cor da letra:

 

save
close
close
 
redimensionar