Cifras e Tablaturas
Orange Goblin

Orange Goblin

The Fog

Cifras Cancelar Versão de Impressão
cifras

Orange Goblin - The Fog

fixar na tela  
Exibindo: vídeo-aula ver clipes redimensionar

Tom:

A

ver outros tons
  
RIFF A  *(Last time you play this riff, You want to bend the last two notes and power chord on the 3rd fret) 
D|-------------------------------------------------------------------------------------------| 
A|-------------------------------------------------------------------------------------------| 
F|-9----7-9-7-9-7---------9----7-9-7-9-7-----------------------------------------------------| x6 
C|-9----7-9-7-9-7---5-----9----7-9-7-9-7---8-7-----7---7----\10------------------------------| 
G|-7----5-7-5-7-5---5-----7----5-7-5-7-5---8-7-----7---7----\10------------------------------| 
D|------------------3----------------------6-5---0-5-0-5----\8---2--3~~----0-3P0---6--5---3--|  

RIFF B 
D|------------------------------------------------------------------------------------------------| 
A|------------------------------------------------------------------------------------------------| 
F|------------------------------------------------------------------------------------------------| 
C|--------------------------------------------------------------6-6--5-5--5-8---------------------| 
G|------------------------5------------------------------5------6-6--5-5--5-8---------------------| 
D|-3-0---0---0-0----0-5-7---7-5----3-0---0---0-0---0-5-7---7-5--4-4--3-3--3-6--3-0----0---0-0-----|  
             *                               *                                            *           
D|------------------| 
A|------------------| 
F|------------------| x3 
C|-7-7-7-7-7-8-8-8--| 
G|-7-7-7-7-7-8-8-8--| 
D|-5-5-5-5-5-6-6-6--|  

RIFF C 
D|----------------------------------------------------------------------------------------------------| 
A|----------------------------------------------------------------------------------------------------| 
F|-9-9-9---8-9-9-9------------------9-9-9---8-9-8-9------------------9-9-9---8-9-9-9------------------| 
C|-9-9-9---8-9-8-9--5-5-5-5-6-6-----9-9-9---8-9-8-9--5-5-5-5-6-6-----9-9-9---8-9-8-9---5-5-5-5-6-6----| 
G|-7-7-7---6-7-6-7--5-5-5-5-6-6-----7-7-7---6-7-6-7--5-5-5-5-6-6-----7-7-7---6-7-6-7---5-5-5-5-6-6----| 
D|------------------3-3-3-3-4-4----------------------3-3-3-3-4-4-----------------------3-3-3-3-4-4----|  

D|------------------------------| 
A|------------------------------| 
F|------------------------------| x2 
C|-5-5--5-5-5--7-7-7-7-7-7-7-7--| 
G|-5-5--5-5-5--7-7-7-7-7-7-7-7--| 
D|-3-3--3-3-3--5-5-5-5-5-5-5-5--|  

D|------------------------------| 
A|------------------------------| 
F|-9-9-9---8-9-8-9--------------| 
C|-9-9-9---8-9-8-9--5-5-5-5-6-6-| 
G|-7-7-7---6-7-6-7--5-5-5-5-6-6-| 
D|------------------3-3-3-3-4-4-|  

RIFF B 

D|------------------------------------------------------------------------------------------------| 
A|------------------------------------------------------------------------------------------------| 
F|------------------------------------------------------------------------------------------------| 
C|--------------------------------------------------------------6-6--5-5--5-8---------------------| 
G|------------------------5------------------------------5------6-6--5-5--5-8---------------------| 
D|-3-0---0---0-0----0-5-7---7-5----3-0---0---0-0---0-5-7---7-5--4-4--3-3--3-6--3-0----0---0-0-----|            

D|------------------| 
A|------------------| 
F|------------------| x3 
C|-7-7-7-7-7-8-8-8--| 
G|-7-7-7-7-7-8-8-8--| 
D|-5-5-5-5-5-6-6-6--|  

RIFF C 
D|----------------------------------------------------------------------------------------------------| 
A|----------------------------------------------------------------------------------------------------| 
F|-9-9-9---8-9-9-9------------------9-9-9---8-9-8-9------------------9-9-9---8-9-9-9------------------| 
C|-9-9-9---8-9-8-9--5-5-5-5-6-6-----9-9-9---8-9-8-9--5-5-5-5-6-6-----9-9-9---8-9-8-9---5-5-5-5-6-6----| 
G|-7-7-7---6-7-6-7--5-5-5-5-6-6-----7-7-7---6-7-6-7--5-5-5-5-6-6-----7-7-7---6-7-6-7---5-5-5-5-6-6----| 
D|------------------3-3-3-3-4-4----------------------3-3-3-3-4-4-----------------------3-3-3-3-4-4----|  

D|------------------------------| 
A|------------------------------| 
F|------------------------------| x2 
C|-5-5--5-5-5--7-7-7-7-7-7-7-7--| 
G|-5-5--5-5-5--7-7-7-7-7-7-7-7--| 
D|-3-3--3-3-3--5-5-5-5-5-5-5-5--|  
                           
                            Let Ring--------------| 
D|----------------------------------0-------------| 
A|----------------------------------0-------------| 
F|-9-9-9---8-9-8-9------------------9-------------| 
C|-9-9-9---8-9-8-9--5-5-5-5-6-6-----9-------------| 
G|-7-7-7---6-7-6-7--5-5-5-5-6-6-----7-------------| 
D|------------------3-3-3-3-4-4-------------------|  

DRUM PART No guitar 

RIFF D 
D|-----------------------------------------------------------------------| 
A|-----------------------------------------------------------------------| 
F|-----------------------------------------------------------------------| x4 
C|-----------------------------------------------------------------------| 
G|-----------------------------------------------------------------------| 
D|-12-12-12-12-12-12-12-12---0-1-1-----10-10-10-10-10-10-10-10---0-4-4---|  

RIFF E 
D|-----------------------------------------------------------------------| 
A|-----------------------------------------------------------------------| 
F|-----------------------------------------------------------------------| x4 
C|-----------------------------------------------------------------------| 
G|-----------------------------------------------------------------------| 
D|-0-2-3-5-----8-6-5-7---3~~----8-6-5-7---2~~----6p5p0--1-1-1------------|  

RIFF D 
D|-----------------------------------------------------------------------| 
A|-----------------------------------------------------------------------| 
F|-----------------------------------------------------------------------| x8 
C|-----------------------------------------------------------------------| 
G|-----------------------------------------------------------------------| 
D|-12-12-12-12-12-12-12-12---0-1-1-----10-10-10-10-10-10-10-10---0-4-4---|  

RIFF E 
D|-----------------------------------------------------------------------| 
A|-----------------------------------------------------------------------| 
F|-----------------------------------------------------------------------| x4 
C|-----------------------------------------------------------------------| 
G|-----------------------------------------------------------------------| 
D|-0-2-3-5-----8-6-5-7---3~~----8-6-5-7---2~~----6p5p0--1-1-1------------|  

RIFF D 
D|-----------------------------------------------------------------------| 
A|-----------------------------------------------------------------------| 
F|-----------------------------------------------------------------------| x8 
C|-----------------------------------------------------------------------| 
G|-----------------------------------------------------------------------| 
D|-12-12-12-12-12-12-12-12---0-1-1-----10-10-10-10-10-10-10-10---0-4-4---|  

RIFF F 
D|------------------------| 
A|------------------------| 
F|------------------------| x4 
C|-2------7-6---7-6-7-5---| 
G|-2------7-6---7-6-7-5---| 
D|-0------5-4---5-4-5-3---|  

RIFF D 
D|-----------------------------------------------------------------------| 
A|-----------------------------------------------------------------------| 
F|-----------------------------------------------------------------------| x8 
C|-----------------------------------------------------------------------| 
G|-----------------------------------------------------------------------| 
D|-12-12-12-12-12-12-12-12---0-1-1-----10-10-10-10-10-10-10-10---0-4-4---|  

RIFF F 
D|------------------------| 
A|------------------------| 
F|------------------------|x8 
C|-2------7-6---7-6-7-5---| 
G|-2------7-6---7-6-7-5---| 
D|-0------5-4---5-4-5-3---|  



************************************ 

| /   slide up 
| \   slide down 
| h   hammer-on 
| p   pull-off 
| ~   vibrato 
| +   harmonic 
| x   Mute note 
| b   Bend 
| pb  Pre-bend 
| br  Bend release 
| pbr Pre-bend release 
| brb Bend release bend 

************************************ 
  

cifra enviadasem correções
enviado porenviada por:deivcavalcanti
top 5 | orange goblin
top heavy metal
Outras músicas do artista letras do(a) Orange Goblin
Top cifras »Top artistas »
Petaxxon Comunicação Online
Cifras.com.br - Melhor e mais completo site de cifras e tablaturas do Brasil
Mais de 1 milhão de acordes de músicas cadastradas desde 2003
As informações contidas no nosso site são colaborações de seus usuários e podem conter erros, sendo assim, não nos responsabilizamos sobre nenhuma destas.
close
menos
mais
close
Cor dos acordes:

Cor da letra:

 

save
close
close
 
redimensionar