Cifras e Tablaturas
Os Mutantes

Os Mutantes

Cidadão Da Terra

Compositor : (Liminha / Sérgio Dias Baptista)

Cifras Cancelar Versão de Impressão
cifras

Os Mutantes - Cidadão Da Terra

fixar na tela  
Exibindo: vídeo-aula ver clipes redimensionar
  
1. INTRODUÇÃO (Escala Am): 


E|------------------------|----------------------------------| 
B|-----------------6------|----------------------------------| 
G|-5h7-7-7-7-7-5-----7-4~-|-x-x-4h5-5-5-5-5-4---4------------| 
D|---------------7--------|-------------------7---5----------| 
A|------------------------|-------------------------5-x-5/-\-| 
E|------------------------|----------------------------------| 


E|------------------------|----------------------------------| 
B|-----------------6------|----------------------------------| 
G|-5h7-7-7-7-7-5-----7-4~-|-x-x-4h5-5-5-5-5-4---4------------| 
D|---------------7--------|-------------------7---5----------| 
A|------------------------|-------------------------5-x-5/-\-| 
E|------------------------|----------------------------------| 


E|------------------------|-------------------------------------------| 
B|-----------------6------|-------------------------------------------| 
G|-5h7-7-7-7-7-5-----7-4~-|-x-x-4h5-5-5-5-5-4---4---------------------| 
D|---------------7--------|-------------------7---5-------------------| 
A|------------------------|-------------------------5-3-5-3--5-3-5/-\-| 
E|------------------------|-------------------------------------------| 


E|--------------------------|--------------------------| 
B|--------------------------|--------------------------| 
G|--------------------------|--------------------------| 
D|----7-5-7-----7-5-7--7-5~-|-----5--------------------| 
A|--------------------------|-5/7---7-5\-----3---------| 
E|-5---------5--------------|------------3/5---5-3~--3-| 


E|--------------------------|--------------------------| 
B|--------------------------|--------------------------| 
G|--------------------------|--------------------------| 
D|----7-5-7-----7-5-7--7-5~-|-----5--------------------| 
A|--------------------------|-5/7---7-5\-----3---------| 
E|-5---------5--------------|------------3/5---5-3~--3-| 


E|-----------------------|------------------------------| 
B|-----------------------|------------------------------| 
G|-----------------------|--------------------------7~\-| 
D|---7-5-7---8-6-8--9-7~-|---10-8-10---11-9-11\---------| 
A|-----------------------|-----------------------5------| 
E|-5-------6-------------|-8---------9------------------| 


E|-------------------------------------------|-----------------------------------8-8-9-10----| 
B|-------------------------------------------|-----------------6-6-8-8-9-9-10-10----------8~-| 
G|-----------5-5-------------5-5-7-7-6-6-5-5-|-----5-5-6-6-7-7-------------------------------| 
D|---3-3-5-5-----5-5-6-6-7-7-----------------|-7-7-------------------------------------------| 
A|-5-----------------------------------------|-----------------------------------------------| 
E|-------------------------------------------|-----------------------------------------------| 


2. GANCHO (Gm6 - C): 


E|-0***-|-0***-|-0***-|-0***-| 
B|-3***-|-3***-|-3***-|-3***-| 
G|-3***-|-5***-|-3***-|-5***-| 
D|-5***-|-5***-|-5***-|-5***-| 
A|------|------|------|------| 
E|------|------|------|------| 


3. ESTROFE (C - Dm7 - Bb): 


E|--------------------------------------------------|---------------------------------| 
B|-5----6-------5----3-------5----6-------5----3----|-5----6-------5--5----5--3--5--3-| 
G|-5----5-------5----3-------5----5-------5----3----|-5----5-------5--5----5--3--5--3-| 
D|-5----7----7-------3--3---------7----7-------3--3-|------7----7-----5----5--3--5--3-| 
A|--------------------------------------------------|---------------------------------| 
E|--------------------------------------------------|---------------------------------| 


E|--------------------------------------------------|---------------------------------| 
B|-5----6-------5----3-------5----6-------5----3----|-5----6-------5--5----5--3--5--3-| 
G|-5----5-------5----3-------5----5-------5----3----|-5----5-------5--5----5--3--5--3-| 
D|-5----7----7-------3--3---------7----7-------3--3-|------7----7-----5----5--3--5--3-| 
A|--------------------------------------------------|---------------------------------| 
E|--------------------------------------------------|---------------------------------| 

 ão  sou      da--qui     nem  sou     de   lá,    eu  sou      de qual-quer lu-gar 
E|--------------------------------------------------|---------------------------------| 
B|-5----6-------5----3-------5----6-------5----3----|-5----6-------5--5----5--3--5--3-| 
G|-5----5-------5----3-------5----5-------5----3----|-5----5-------5--5----5--3--5--3-| 
D|-5----7----7-------3--3---------7----7-------3--3-|------7----7-----5----5--3--5--3-| 
A|--------------------------------------------------|---------------------------------| 
E|--------------------------------------------------|---------------------------------| 

   pas  -  sa - porte    é  espa  -  ci - al,    sou  ci  --  da-dão     da Terra 
E|--------------------------------------------------|---------------------------------| 
B|-5----6-------5----3-------5----6-------5----3----|-5----6-------5--5----5--3--5--3-| 
G|-5----5-------5----3-------5----5-------5----3----|-5----5-------5--5----5--3--5--3-| 
D|-5----7----7-------3--3---------7----7-------3--3-|------7----7-----5----5--3--5--3-| 
A|--------------------------------------------------|---------------------------------| 
E|--------------------------------------------------|---------------------------------| 


4. REFRÃO (Am - G): 

                                     a minha vida é toda verdade"      eu não tenho mais idade" 
E|---------------------------------------------|-----------------------------------| 
B|---------------------------------------------|-----------------------------------| 
G|---------------------------------------------|-----------------------------------| 
D|-7-5------------------5----5-5---------------|------------5----5-5---------------| 
A|-----7-5------------7----7-----7-------------|----------7----7-----7-------------| 
E|---------8-3-3/5--5--------------5~\-x-x-x-x-|-3-3/5--5--------------5~\-x-x-x-x-| 

                                     o meu passado é o meu futuro     o meu tempo é o infi-... 
E|---------------------------------------------|---------------------------| 
B|---------------------------------------------|---------------------------| 
G|---------------------------------------------|---------------------------| 
D|-7-5------------------5----5-5---------------|------------5----5-5-------| 
A|-----7-5------------7----7-----7-------------|----------7----7-----7-----| 
E|---------8-3-3/5--5--------------5~\-x-x-x-x-|-3-3/5--5--------------5~\-| 


2. GANCHO (Gm6 - C): 

"-nito   uuuuuh yeeeeh aaaaah 
E|-0***-|-0***-|-0***-|-0***-| 
B|-3***-|-3***-|-3***-|-3***-| 
G|-3***-|-5***-|-3***-|-5***-| 
D|-5***-|-5***-|-5***-|-5***-| 
A|------|------|------|------| 
E|------|------|------|------| 


3. ESTROFE (C - Dm7 - Bb): 

      mi  -  nha  língua   é o pen  -  sa - mento, só   falo    com      o  o - lhar 
E|--------------------------------------------------|---------------------------------| 
B|-5----6-------5----3-------5----6-------5----3----|-5----6-------5--5----5--3--5--3-| 
G|-5----5-------5----3-------5----5-------5----3----|-5----5-------5--5----5--3--5--3-| 
D|-5----7----7-------3--3---------7----7-------3--3-|------7----7-----5----5--3--5--3-| 
A|--------------------------------------------------|---------------------------------| 
E|--------------------------------------------------|---------------------------------| 

       fron-teira    é o  co  --  ra--ção     de   to  -  dos meus ir-mãos 
E|--------------------------------------------------|---------------------------------| 
B|-5----6-------5----3-------5----6-------5----3----|-5----6-------5--5----5--3--5--3-| 
G|-5----5-------5----3-------5----5-------5----3----|-5----5-------5--5----5--3--5--3-| 
D|-5----7----7-------3--3---------7----7-------3--3-|------7----7-----5----5--3--5--3-| 
A|--------------------------------------------------|---------------------------------| 
E|--------------------------------------------------|---------------------------------| 


4. REFRÃO (Am - G): 

                                     a minha vida é toda verdade"      eu não tenho mais idade" 
E|---------------------------------------------|-----------------------------------| 
B|---------------------------------------------|-----------------------------------| 
G|---------------------------------------------|-----------------------------------| 
D|-7-5------------------5----5-5---------------|------------5----5-5---------------| 
A|-----7-5------------7----7-----7-------------|----------7----7-----7-------------| 
E|---------8-3-3/5--5--------------5~\-x-x-x-x-|-3-3/5--5--------------5~\-x-x-x-x-| 

                                     o meu passado é o meu futuro     o meu tempo é o infi-... 
E|---------------------------------------------|---------------------------| 
B|---------------------------------------------|---------------------------| 
G|---------------------------------------------|---------------------------| 
D|-7-5------------------5----5-5---------------|------------5----5-5-------| 
A|-----7-5------------7----7-----7-------------|----------7----7-----7-----| 
E|---------8-3-3/5--5--------------5~\-x-x-x-x-|-3-3/5--5--------------5~\-| 


2. GANCHO (Gm6 - C): 

"-nito   uuuuuh yeeeeh aaaaah 
E|-0***-|-0***-|-0***-|-0***-| 
B|-3***-|-3***-|-3***-|-3***-| 
G|-3***-|-5***-|-3***-|-5***-| 
D|-5***-|-5***-|-5***-|-5***-| 
A|------|------|------|------| 
E|------|------|------|------| 


5. BASE Solo: 

5.1. Modo dórico G 

E|--------------------------------------------------|---------------------------------| 
B|-5----6-------5----3-------5----6-------5----3----|-5----6-------5--5----5--3--5--3-| 
G|-5----5-------5----3-------5----5-------5----3----|-5----5-------5--5----5--3--5--3-| 
D|-5----7----7-------3--3---------7----7-------3--3-|------7----7-----5----5--3--5--3-| 
A|--------------------------------------------------|---------------------------------| 
E|--------------------------------------------------|---------------------------------| 


E|--------------------------------------------------|---------------------------------| 
B|-5----6-------5----3-------5----6-------5----3----|-5----6-------5--5----5--3--5--3-| 
G|-5----5-------5----3-------5----5-------5----3----|-5----5-------5--5----5--3--5--3-| 
D|-5----7----7-------3--3---------7----7-------3--3-|------7----7-----5----5--3--5--3-| 
A|--------------------------------------------------|---------------------------------| 
E|--------------------------------------------------|---------------------------------| 


5.2. Modo dórico A 

E|---------------------------------------------|-----------------------------------| 
B|---------------------------------------------|-----------------------------------| 
G|---------------------------------------------|-----------------------------------| 
D|-7-5------------------5----5-5---------------|------------5----5-5---------------| 
A|-----7-5------------7----7-----7-------------|----------7----7-----7-------------| 
E|---------8-3-3/5--5--------------5~\-x-x-x-x-|-3-3/5--5--------------5~\-x-x-x-x-| 

E|-----------------------------------|-----------------------|----------------------------------------| 
B|-----------------------------------|-----------------------|----------------------------------------| 
G|-----------------------------------|-----------------------|-------5--------------------------------| 
D|------------5----5-5---------------|------------5----5-5-5-|-7p5-----7-5-7p5---5--------------------| 
A|----------7----7-----7-------------|----------7----7-------|-----7-----------7---7-5-7p5-3-5p3------| 
E|-3-3/5--5--------------5~\-x-x-x-x-|-3-3/5--5--------------|-----------------------------------5-3~-| 


5.3. Modo dórico G 

E|-0***|-------------------------------------------------|---------------------------------| 
B|-3***|5----6-------5----3-------5----6-------5----3----|-5----6-------5--5----5--3--5--3-| 
G|-3***|5----5-------5----3-------5----5-------5----3----|-5----5-------5--5----5--3--5--3-| 
D|-5***|5----7----7-------3--3---------7----7-------3--3-|------7----7-----5----5--3--5--3-| 
A|-----|-------------------------------------------------|---------------------------------| 
E|-----|-------------------------------------------------|---------------------------------| 


E|--------------------------------------------------|---------------------------------| 
B|-5----6-------5----3-------5----6-------5----3----|-5----6-------5--5----5--3--5--3-| 
G|-5----5-------5----3-------5----5-------5----3----|-5----5-------5--5----5--3--5--3-| 
D|-5----7----7-------3--3---------7----7-------3--3-|------7----7-----5----5--3--5--3-| 
A|--------------------------------------------------|---------------------------------| 
E|--------------------------------------------------|---------------------------------| 


6. PONTE (Modo dórico B): 


E|-0***-|-------7-----------------7-----|----|-------7-----------------7-------| 
B|-0***-|-------7--------9--------7--------7-|-------7--------9--------7-------| 
G|-1***-|-------7--------9--------7--------7-|-------7--------9--------7--7^^^-| 
D|-2***-|-9^^^-----9^^^--9--9^^^-----9^^^--7-|-9^^^-----9^^^--9--9^^^-----9^^^-| 
A|-2***-|-9^^^-----9^^^-----9^^^-----9^^^----|-9^^^-----9^^^-----9^^^-----9^^^-| 
E|-0***-|-7^^^-----7^^^-----7^^^---- 7^^^----|-7^^^-----7^^^-----7^^^-----7^^^-| 


E|-------7-----------------7----------|-------7-----------------9--7^^^-| 
B|-------7--------9--------7--------7-|-------7--------9--------9--7^^^-| 
G|-------7--------9--------7--------7-|-------7--------9--------9--7^^^-| 
D|-9^^^-----9^^^--9--9^^^-----9^^^--7-|-9^^^-----9^^^--9--9^^^-----9^^^-| 
A|-9^^^-----9^^^-----9^^^-----9^^^----|-9^^^-----9^^^-----9^^^----------| 
E|-7^^^-----7^^^-----7^^^-----7^^^----|-7^^^-----7^^^-----7^^^----------| 

E|-5^^^-x-x-x-4^^^-x-x-x-7^^^-x-x-x-5^^^-x-x-x-|-0***-0***-0***-0***-| 
B|-7^^^-x-x-x-5^^^-x-x-x-9^^^-x-x-x-7^^^-x-x-x-|-3***-2***-1***-0***-| 
G|---------------------------------------------|-5***-4***-3***-2***-| 
D|---------------------------------------------|-5***-4***-3***-2***-| 
A|---------------------------------------------|---------------------| 
E|---------------------------------------------|---------------------| 


3. ESTROFE (C - Dm7 - Bb): 


E|--------------------------------------------------|---------------------------------| 
B|-5----6-------5----3-------5----6-------5----3----|-5----6-------5--5----5--3--5--3-| 
G|-5----5-------5----3-------5----5-------5----3----|-5----5-------5--5----5--3--5--3-| 
D|-5----7----7-------3--3---------7----7-------3--3-|------7----7-----5----5--3--5--3-| 
A|--------------------------------------------------|---------------------------------| 
E|--------------------------------------------------|---------------------------------| 


E|--------------------------------------------------|---------------------------------| 
B|-5----6-------5----3-------5----6-------5----3----|-5----6-------5--5----5--3--5--3-| 
G|-5----5-------5----3-------5----5-------5----3----|-5----5-------5--5----5--3--5--3-| 
D|-5----7----7-------3--3---------7----7-------3--3-|------7----7-----5----5--3--5--3-| 
A|--------------------------------------------------|---------------------------------| 
E|--------------------------------------------------|---------------------------------| 

 ão  sou      da--qui     nem  sou     de   lá,    eu  sou      de qual-quer lu-gar 
E|--------------------------------------------------|---------------------------------| 
B|-5----6-------5----3-------5----6-------5----3----|-5----6-------5--5----5--3--5--3-| 
G|-5----5-------5----3-------5----5-------5----3----|-5----5-------5--5----5--3--5--3-| 
D|-5----7----7-------3--3---------7----7-------3--3-|------7----7-----5----5--3--5--3-| 
A|--------------------------------------------------|---------------------------------| 
E|--------------------------------------------------|---------------------------------| 

   pas  -  sa - porte    é  espa  -  ci - al,    sou  ci  --  da-dão     da Terra 
E|--------------------------------------------------|---------------------------------| 
B|-5----6-------5----3-------5----6-------5----3----|-5----6-------5--5----5--3--5--3-| 
G|-5----5-------5----3-------5----5-------5----3----|-5----5-------5--5----5--3--5--3-| 
D|-5----7----7-------3--3---------7----7-------3--3-|------7----7-----5----5--3--5--3-| 
A|--------------------------------------------------|---------------------------------| 
E|--------------------------------------------------|---------------------------------| 


4. REFRÃO (Am - G): 

                                     a minha vida é toda verdade"      eu não tenho mais idade" 
E|---------------------------------------------|-----------------------------------| 
B|---------------------------------------------|-----------------------------------| 
G|---------------------------------------------|-----------------------------------| 
D|-7-5------------------5----5-5---------------|------------5----5-5---------------| 
A|-----7-5------------7----7-----7-------------|----------7----7-----7-------------| 
E|---------8-3-3/5--5--------------5~\-x-x-x-x-|-3-3/5--5--------------5~\-x-x-x-x-| 

                                     o meu passado é o meu futuro     o meu tempo é o infi-... 
E|---------------------------------------------|---------------------------| 
B|---------------------------------------------|---------------------------| 
G|---------------------------------------------|---------------------------| 
D|-7-5------------------5----5-5---------------|------------5----5-5-------| 
A|-----7-5------------7----7-----7-------------|----------7----7-----7-----| 
E|---------8-3-3/5--5--------------5~\-x-x-x-x-|-3-3/5--5--------------5~\-| 


2. GANCHO (Gm6 - C): 

"-nito   uuuuuh yeeeeh aaaaah 
E|-0***-|-0***-|-0***-|-0***-| 
B|-3***-|-3***-|-3***-|-3***-| 
G|-3***-|-5***-|-3***-|-5***-| 
D|-5***-|-5***-|-5***-|-5***-| 
A|------|------|------|------| 
E|------|------|------|------| 


7. FINAL (Gm6): 


E|-0***-|-0***-|-0***-|-0~~~-| 
B|-3***-|-3***-|-3***-|-3~~~-| 
G|-3***-|-3***-|-3***-|-3~~~-| 
D|-5***-|-5***-|-5***-|-5~~~-| 
A|------|------|------|------| 
E|------|------|------|------| 


************************ 
h = Hammer-on 
p = Pull-off 
/ = Slide ascendente 
\ = Slide descendente 
~ = Vibrato 
x = Ghost note 
^^^ = Palhetada rítmica 
*** = Palhetada arpejada 
************************ 
  

cifra enviadasem correções
enviado porenviada por:Jocapg
top 5 | os mutantes
top rock clássico
Outras músicas do artista letras do(a) Os Mutantes
Top cifras »Top artistas »
Petaxxon Comunicação Online
Cifras.com.br - Melhor e mais completo site de cifras e tablaturas do Brasil
Mais de 1 milhão de acordes de músicas cadastradas desde 2003
As informações contidas no nosso site são colaborações de seus usuários e podem conter erros, sendo assim, não nos responsabilizamos sobre nenhuma destas.
close
menos
mais
close
Cor dos acordes:

Cor da letra:

 

save
close
close
 
redimensionar