Cifras e Tablaturas
Owen

Owen

The Only Child Of Aergia

Cifras Cancelar Versão de Impressão

Owen - The Only Child Of Aergia

Tom: C

  			
 


Intro 
D|----------------------|--0-------------------|----------------------|--0----| 
B|-----------0----------|-----------0----------|-----------0----------|-------| 
G|--------5-----5-------|--------5-------------|--------2-----2-------|-------| 
E|-----7-----------7----|-----7----------------|-----3-----------3----|-------| 
G|--0-------------------|----------------------|----------------------|-------| 
C|----------------------|----------------------|--4-------------------|-------| 

D|----------------------|--0-------------------|----------------------|--0----| 
B|-----------0----------|-----------0----------|-----------0----------|-------| 
G|--------5-----5-------|--------5-------------|--------2-----2-------|-------| 
E|-----7-----------7----|-----7----------------|-----3-----------3----|-------| 
G|--0-------------------|----------------------|----------------------|-------| 
C|----------------------|----------------------|--4-------------------|--0----| 

verse 1 
    Amidst all the whores and                     fiends  
D|----------------------|--0-------------------|----------------------|--0----| 
B|-----------0----------|-----------0----------|-----------0----------|-------| 
G|--------5-----5-------|--------5-------------|--------2-----2-------|-------| 
E|-----7-----------7----|-----7----------------|-----3-----------3----|-------| 
G|--0-------------------|----------------------|----------------------|-------| 
C|----------------------|----------------------|--4-------------------|-------| 

    I misplaced my solemnity 
D|----------------------|--0-------------------|----------------------|--0----| 
B|-----------0----------|-----------0----------|-----------0----------|-------| 
G|--------5-----5-------|--------5-------------|--------2-----2-------|-------| 
E|-----7-----------7----|-----7----------------|-----3-----------3----|-------| 
G|--0-------------------|----------------------|----------------------|-------| 
C|----------------------|----------------------|--4-------------------|--0----| 

    Last but not least                            on a long list in life 
D|----------------------|--0-------------------|----------------------|--0----| 
B|-----------0----------|-----------0----------|-----------0----------|--0----| 
G|--------5-----5-------|--------5-------------|--------2-----2-------|-------| 
E|-----7-----------7----|-----7----------------|-----3-----------3----|-------| 
G|--0-------------------|----------------------|----------------------|-------| 
C|----------------------|----------------------|--4-------------------|-------| 

Chorus 1 
                              of casualties 
D|----------------------|--0-------------------|----------------------| 
B|-----------0----------|-----------0----------|-----------0----------| 
G|--------2-----2-------|--------2-----2-------|--------2-----2-------| 
E|-----3-----------3----|-----3-----------3----|-----3-----------3----| 
G|----------------------|----------------------|----------------------| 
C|--0-------------------|----------------------|--2-------------------| 

D|--0-------------------|----------------------|--0-------------------| 
B|-----------0----------|-----------0----------|-----------0----------| 
G|--------2-----2-------|--------2-----2-------|--------2-----2-------| 
E|-----3-----------3----|-----3-----------3----|-----3-----------3----| 
G|----------------------|----------------------|----------------------| 
C|----------------------|--0-------------------|----------------------| 

D|----------------------|--0-------------------|----------------------| 
B|-----------0----------|-----------0----------|-----------0----------| 
G|--------2-----2-------|--------2-----2-------|--------2-----2-------| 
E|-----3-----------3----|-----3-----------3----|-----3-----------3----| 
G|----------------------|--4-------------------|----------------------| 
C|--4-------------------|----------------------|--0-------------------| 

D|--0-------------------|----------------------|--0----| 
B|-----------0----------|-----------0----------|-------| 
G|--------2-----2-------|--------2-----2L-2p---|--0----| 
E|-----3-----------3----|-----3-----------3\---|--2----| 
G|----------------------|----------------------|-------| 
C|----------------------|--2-------------------|-------| 

verse 2 
D|----------------------|--0-------------------|----------------------|--0----| 
B|-----------0----------|-----------0----------|-----------0----------|--0----| 
G|--------5-----5-------|--------5--------0----|--------2-----2-------|-------| 
E|-----7-----------7----|-----7--------5-------|-----3-----------3----|-------| 
G|--0-------------------|----------------------|----------------------|-------| 
C|----------------------|----------------------|--4-------------------|-------| 

D|----------------------|--0-------------------|----------------------|--0----| 
B|-----------0----------|-----------0----------|-----------0----------|-------| 
G|--------5-----5-------|--------5-------------|--------2-----2-------|-------| 
E|-----7-----------7----|-----7----------------|-----3-----------3----|-------| 
G|--0-------------------|----------------------|----------------------|-------| 
C|----------------------|----------------------|--4-------------------|--0----| 

    I walked back and forth                       retracing my steps  
D|----------------------|--0-------------------|----------------------|--0----| 
B|-----------0----------|-----------0----------|-----------0----------|-------| 
G|--------5-----5-------|--------5-------------|--------2-----2-------|-------| 
E|-----7-----------7----|-----7----------------|-----3-----------3----|-------| 
G|--0-------------------|----------------------|----------------------|-------| 
C|----------------------|----------------------|--4-------------------|-------| 

    Where'd I'd been                              and who I'd seen 
D|----------------------|--0-------------------|----------------------|--0----| 
B|-----------0----------|-----------0----------|-----------0----------|-------| 
G|--------5-----5-------|--------5-------------|--------2-----2-------|-------| 
E|-----7-----------7----|-----7----------------|-----3-----------3----|-------| 
G|--0-------------------|----------------------|----------------------|-------| 
C|----------------------|----------------------|--4-------------------|--0----| 

    Through an open door                          into an empty bed 
D|----------------------|--0-------------------|----------------------|--0----| 
B|-----------0----------|-----------0----------|-----------0----------|--0----| 
G|--------5-----5-------|--------5-------------|--------2-----2-------|-------| 
E|-----7-----------7----|-----7----------------|-----3-----------3----|-------| 
G|--0-------------------|----------------------|----------------------|-------| 
C|----------------------|----------------------|--4-------------------|-------| 

Chorus 2 
    To my hands                               and knees 
D|----------------------|--0-------------------|----------------------| 
B|-----------0----------|-----------0----------|-----------0----------| 
G|--------2-----2-------|--------2-----2-------|--------2-----2-------| 
E|-----3-----------3----|-----3-----------3----|-----3-----------3----| 
G|----------------------|----------------------|----------------------| 
C|--0-------------------|----------------------|--2-------------------| 
                           Looking for              some 
D|--0-------------------|----------------------|--0-------------------| 
B|-----------0----------|-----------0----------|-----------0----------| 
G|--------2-----2-------|--------2-----2-------|--------2-----2-------| 
E|-----3-----------3----|-----3-----------3----|-----3-----------3----| 
G|----------------------|----------------------|----------------------| 
C|----------------------|--0-------------------|----------------------| 

    Kind of                sign                   A deadly 
D|----------------------|--0-------------------|----------------------| 
B|-----------0----------|-----------0----------|-----------0----------| 
G|--------2-----2-------|--------2-----2-------|--------2-----2-------| 
E|-----3-----------3----|-----3-----------3----|-----3-----------3----| 
G|----------------------|--4-------------------|----------------------| 
C|--4-------------------|----------------------|--0-------------------| 
                           
                           disease 
D|--0-------------------|----------------------|--0-------------------| 
B|-----------0----------|-----------0----------|-----------0----------| 
G|--------2-----2-------|--------2-----2-------|--------2-----2-------| 
E|-----3-----------3----|-----3-----------3----|-----3-----------3----| 
G|----------------------|----------------------|----------------------| 
C|----------------------|--2-------------------|----------------------| 
     
    Or a homeless man                             who knows my 
D|----------------------|--0-------------------|----------------------| 
B|-----------0----------|-----------0----------|-----------0----------| 
G|--------2-----2-------|--------2-----2-------|--------2-----2-------| 
E|-----3-----------3----|-----3-----------3----|-----3-----------3----| 
G|----------------------|----------------------|----------------------| 
C|--0-------------------|----------------------|--4-------------------| 

    friends by             name 
D|--0-------------------|----------------------|--0-------------------| 
B|-----------0----------|-----------0----------|-----------0----------| 
G|--------2-----2-------|--------2-----2-------|--------2-----2-------| 
E|-----3-----------3----|-----3-----------3----|-----3-----------3----| 
G|--4-------------------|----------------------|----------------------| 
C|----------------------|--0-------------------|----------------------| 

D|----------------------|--0----| 
B|-----------0----------|-------| 
G|--------2-----2L-2p---|--0----| 
E|-----3-----------3\---|--2----| 
G|----------------------|-------| 
C|--2-------------------|-------| 

Bridge 
D|----------------------|--0-------------------|----------------------| 
B|-----------0----------|-----------0----------|--------------0-------| 
G|--------0-----0-------|--------0-----0-------|-----------0-----0----| 
E|-----0-----------0----|-----0-----------0----|--------0-------------| 
G|--2-------------------|----------------------|-----4----------------| 
C|----------------------|----------------------|--4-------------------| 

D|----------------------|--0-------------------|--0-------------------|--0-------------------| 
B|-----------1----------|-----------1----------|-----------1----------|-----------1----------| 
G|--------------0-------|--------0-----0-------|--------0-----0-------|--------0-------------| 
E|--------1--------1----|-----1-----------1----|-----1-----------1----|-----1----------------| 
G|-----3----------------|----------------------|----------------------|----------------------| 
C|--2-------------------|----------------------|----------------------|----------------------| 

                        The sounds of sirens and heartache can be heard in the distance 
D|----------|----------|-------|----------|----------|----------|-------|----------| 
B|--0-------|----------|-------|----------|--0-------|----------|-------|----------| 
G|-----0----|----------|-------|----------|-----0----|----------|-------|----------| 
E|----------|-----0----|-------|-----0----|----------|-----0----|-------|-----0----| 
G|----------|--5-------|-------|--5-------|----------|--4-------|-------|--4-------| 
C|--5-------|----------|--5----|----------|--0-------|----------|--0----|----------| 

from where I lay stretched out, the only child of Aergia 
D|----------|----------|-------|----------|----------|----------| 
B|--0-------|----------|-------|----------|--0-------|----------| 
G|-----0----|----------|-------|----------|-----0----|----------| 
E|----------|-----0----|-------|-----0----|----------|-----0----| 
G|----------|--5-------|-------|--5-------|----------|--4-------| 
C|--5-------|----------|--5----|----------|--0-------|----------| 

D|----------------------|--0-------------------|--0-------------------|--0-------------------| 
B|-----------1----------|-----------1----------|-----------1----------|-----------1----------| 
G|--------0-----0-------|--------0-----0-------|--------0-----0-------|--------0-------------| 
E|-----1-----------1----|-----1-----------1----|-----1-----------1----|-----1----------------| 
G|--3-------------------|----------------------|----------------------|----------------------| 
C|----------------------|----------------------|----------------------|----------------------| 

    In the room,                  rubble and ruins 
D|----------|----------|-------|----------|----------|----------|-------|----------| 
B|--0-------|----------|-------|----------|--0-------|----------|-------|----------| 
G|-----0----|----------|-------|----------|-----0----|----------|-------|----------| 
E|----------|-----0----|-------|-----0----|----------|-----0----|-------|-----0----| 
G|----------|--5-------|-------|--5-------|----------|--4-------|-------|--4-------| 
C|--5-------|----------|--5----|----------|--0-------|----------|--0----|----------| 


If I lie still long enough       for my heart to stop, will I find  
D|----------|----------|-------|----------|----------|----------| 
B|--0-------|----------|-------|----------|--0-------|----------| 
G|-----0----|----------|-------|----------|-----0----|----------| 
E|----------|-----0----|-------|-----0----|----------|-----0----| 
G|----------|--5-------|-------|--5-------|----------|--4-------| 
C|--5-------|----------|--5----|----------|--0-------|----------| 

                           what I lost? 
D|----------------------|--0-------------------|----------------------| 
B|-----------1----------|-----------1----------|-----------0----------| 
G|--------0-----0-------|--------0-----0-------|--------0-----0-------| 
E|-----1-----------1----|-----1-----------1----|-----0-----------0----| 
G|--3-------------------|----------------------|--2-------------------| 
C|----------------------|----------------------|----------------------| 

D|--0-------------------|----------------------|--0-------------------| 
B|-----------0----------|-----------0----------|-----------0----------| 
G|--------0-----0-------|--------2-----2-------|--------2-----2-------| 
E|-----0-----------0----|-----3-----------3----|-----3-----------3----| 
G|----------------------|----------------------|----------------------| 
C|----------------------|--0-------------------|----------------------| 

D|----------------------|--0-------------------|----------------------| 
B|-----------0----------|-----------0----------|-----------0----------| 
G|--------2-----2-------|--------2-----2-------|--------2-----2-------| 
E|-----3-----------3----|-----3-----------3----|-----3-----------3----| 
G|----------------------|----------------------|----------------------| 
C|--2-------------------|----------------------|--0-------------------| 

D|--0-------------------|----------------------|--0-------------------| 
B|-----------0----------|-----------0----------|-----------0----------| 
G|--------2-----2-------|--------2-----2-------|--------2-----2-------| 
E|-----3-----------3----|-----3-----------3----|-----3-----------3----| 
G|----------------------|----------------------|--4-------------------| 
C|----------------------|--4-------------------|----------------------| 

D|----------------------|--0-------------------|----------------------|--0----| 
B|-----------0----------|-----------0----------|-----------0----------|-------| 
G|--------2-----2-------|--------2-----2-------|--------2-----2L-2p---|--0----| 
E|-----3-----------3----|-----3-----------3----|-----3-----------3\---|--2----| 
G|----------------------|----------------------|----------------------|-------| 
C|--0-------------------|----------------------|--2-------------------|-------| 

Outro 
D|----------------------|--0-------------------|----------------------|--0----| 
B|-----------0----------|-----------0----------|-----------0----------|--0----| 
G|--------5-----5-------|--------5-------------|--------2-----2-------|-------| 
E|-----7-----------7----|-----7----------------|-----3-----------3----|-------| 
G|--0-------------------|----------------------|----------------------|-------| 
C|----------------------|----------------------|--4-------------------|-------| 

D|----------------------|--0-------------------|----------------------|--0----| 
B|-----------0----------|-----------0----------|-----------0----------|-------| 
G|--------5-----5-------|--------5-------------|--------2-----2-------|-------| 
E|-----7-----------7----|-----7----------------|-----3-----------3----|-------| 
G|--0-------------------|----------------------|----------------------|-------| 
C|----------------------|----------------------|--4-------------------|--0----| 



*********************************** 

| L Tied note 
| p Pull-off 
| \ Slide down 

*********************************** 
    	
fixar
fixar inscrever-se

enviado porenviado por: lucicamargo
cifra enviadaCorrigida por: sem correções
logo top cifrasComente
ico música do artistaMúsicas deste artista
ico curtiuCurtiu?
ico destaqueDestaque
Petaxxon Comunicação Online

Cifras.com.br - Melhor e mais completo site de cifras e tablaturas do Brasil Mais de 1 milhão de acordes de músicas cadastradas desde 2003
As informações contidas no nosso site são colaborações de seus usuários e podem conter erros, sendo assim, não nos responsabilizamos sobre nenhuma destas.

close
menos
mais
close
Cor dos acordes:

Cor da letra:

close
Alinhar acordes a direita Alinhar acordes a esquerda Alinhar acordes em baixo Alinhar acordes no topo
close
  Mostrar todos os acordes Esconder acordes muito fáceis Esconder acordes fáceis Esconder acordes intermediários
redimensionar
glossário