Cifras e Tablaturas
Cifras Cancelar Versão de Impressão
cifras

Ozzy Osbourne - No More Tears

fixar na tela  
Exibindo: vídeo-aula ver clipes redimensionar

Tom:

  
Intro: 

eb|----------------------------------------------------| 
Bb|---------------------------------/10--10/12--12\----| 
Gb|-11b12r11--11b12r11--------------/10--10/12--12\----| 
Db|--------------------12-----------/10--10/12--12\----| 
Ab|-----------------------12-12/15---------------------| 
Db|----------------------------------------------------| 

eb|----------------------------------------------------| 
Bb|---------------------------------/10---12\---20-----| 
Gb|-11b12r11--11b12r11--------------/10---12\----------| 
Db|--------------------12-----------/10---12\----------| 
Ab|-----------------------12-12/15---------------------| 
Db|----------------------------------------------------| 

Part A: 

eb|-----------------------------------------| 
Bb|-----------------------------------------| 
Gb|-----------------------------------------| 
Db|-----------------------------------------| 
Ab|-0-3-0--3/6--5-3-5-3-0---3/6--5-3-5-5ha~-| 
Db|-0-3-0--3/6--5-3-5-3-0---3/6--5-3-5------| 

eb|-----------------------------------------------------| 
Bb|-----------------------------------------------------| 
Gb|----10----10/13--12-10-12-10--10/13--12-10-12-10-----| 
Db|-12-10-12-10/13--12-10-12-10--10/13--12-10-12-10-----| 
Ab|-12----12------------------------------------------0-| 
Db|---------------------------------------------------0-| 

Part B: 

eb|---------------------------------------------| 
Bb|---------------------------------------------| 
Gb|---------------------------------------------| 
Db|-------------------------------------------3-| 
Ab|-0--0-0-0-0-0--2--0-0-0-0-0--3--0-0-0-0-0--1-| 
Db|-0--0-0-0-0-0--2--0-0-0-0-0--3--0-0-0-0-0----| 

eb|----------------------------------| 
Bb|----------------------------------| 
Gb|----------------------------------| 
Db|----------------------------------| 
Ab|-2--2-2-2-2-2-2--3--3-3-3-3-3-3-3-| 
Db|-2--2-2-2-2-2-2--3--3-3-3-3-3-3-3-| 

eb|--------------------------| 
Bb|--------------------------| 
Gb|----7-----5~----4~----3~--| 
Db|--------------------------| 
Ab|-3/5----5-----5-----5-----| 
Db|--------------------------| 

eb|------------| 
Bb|------------| 
Gb|------------| 
Db|------------| 
Ab|--5-6-5-3-0-| 
Db|--5-6-5-3-0-| 

eb|------------------------------------------|----| 
Bb|------------------------------------------|----| 
Gb|------7-----5------4-----3----------------|----| 
Db|------------------------------------------|----| 
Ab|-3/5----5-----3/5-----5-------5--6--5--3--|--0-| 
Db|------------------------------5--6--5--3--|--0-| 

Solo: 

eb|-----------------------------------------------------------------| 
Bb|-----------------------------------------------------------------| 
Gb|--/11~--11-12-12/14-14~-12~-11~-9~-10~--12b14r12p10-12b14r12b14--| 
Db|-----------------------------------------------------------------| 
Ab|-----------------------------------------------------------------| 
Db|-----------------------------------------------------------------| 

eb|----------------------------------| 
Bb|----------------------10-13b15~---| 
Gb|-12b14r12-11~--/11-12-------------| 
Db|----------------------------------| 
Ab|----------------------------------| 
Db|----------------------------------| 

eb|-12b13r12p10-12b13r12b13~---| 
Bb|----------------------------| 
Gb|----------------------------| 
Db|----------------------------| 
Ab|----------------------------| 
Db|----------------------------| 

eb|-15b17r15p13--15b17r15b17-15b17-15b17-15b17-15b17-15b17r15-13-----| 
Bb|--------------------------------------------------------------15~-| 
Gb|------------------------------------------------------------------| 
Db|------------------------------------------------------------------| 
Ab|------------------------------------------------------------------| 
Db|------------------------------------------------------------------| 

eb|-------10-------------10-------------------------------| 
Bb|-13b15----13-10--------------------------12----10------| 
Gb|----------------12b14----12b13-12-10-----12----10~-----| 
Db|--------------------------------------12----12-----12~-| 
Ab|-------------------------------------------------------| 
Db|-------------------------------------------------------| 

eb|----------------------------------------------------| 
Bb|-----------------12----------12----10~-------13b15--| 
Gb|-12b14r12p10-----12-12p10----12----10~--------------| 
Db|--------------12----------12----12-----12p10--------| 
Ab|----------------------------------------------------| 
Db|----------------------------------------------------| 

eb|-10---------------10-------------------------------------------------| 
Bb|----13-10------10----10h13p10--------10------10----------------------| 
Gb|----------12b13----------------12b13---12b13----12b13-12-10-12-10----| 
Db|------------------------------------------------------------------12-| 
Ab|---------------------------------------------------------------------| 
Db|---------------------------------------------------------------------| 

eb|-15b17r15-13-15-13--15b17-13--15b17-17r15-13h14-----| 
Bb|------------------------------------------------15~-| 
Gb|----------------------------------------------------| 
Db|----------------------------------------------------| 
Ab|----------------------------------------------------| 
Db|----------------------------------------------------| 

eb|-13p10-13p10-------|-----13p10-13p10---------| 
Bb|-------------13p10-|------------------13-10--| 
Gb|-------------------|(3x)---------------------| 
Db|-------------------|-------------------------| 
Ab|-------------------|-------------------------| 
Db|-------------------|-------------------------| 


eb|-15-13-15-13-------| 
Bb|-------------15-13-| 
Gb|-------------------| 
Db|-------------------| 
Ab|-------------------| 
Db|-------------------| (4x) 

eb|-18p13----13--18p13----13--18p13----13--18p13----13-| 
Bb|-------15-----------15-----------15-----------15----| 
Gb|----------------------------------------------------| 
Db|----------------------------------------------------| 
Ab|----------------------------------------------------| 
Db|----------------------------------------------------| 

eb|-20p15----15--20p15----15-20p15----15--20p15----15--20b22-22\--| 
Bb|-------17-----------17----------17-----------17----------------| 
Gb|---------------------------------------------------------------| 
Db|---------------------------------------------------------------| 
Ab|---------------------------------------------------------------| 
Eb|---------------------------------------------------------------| 

End: 

eb|--------------------------| 
Bb|--------------------------| 
Gb|---7---5---4---3----------| 
Db|---------------3----------| 
Ab|3/5--5--3/5--5----5-6-5-3-| 
Db|------------------5-3-5-3-| 

  

top 5 | ozzy osbourne
top heavy metal
Outras músicas do artista letras do(a) Ozzy Osbourne
Top cifras »Top artistas »
Petaxxon Comunicação Online
Cifras.com.br - Melhor e mais completo site de cifras e tablaturas do Brasil
Mais de 1 milhão de acordes de músicas cadastradas desde 2003
As informações contidas no nosso site são colaborações de seus usuários e podem conter erros, sendo assim, não nos responsabilizamos sobre nenhuma destas.
close
menos
mais
close
Cor dos acordes:

Cor da letra:

 

save
close
close
 
redimensionar