Cifras e Tablaturas
Palankin

Palankin

Single Epifania

Cifras Cancelar Versão de Impressão
cifras

Palankin - Single Epifania

fixar na tela  
Exibindo: vídeo-aula ver clipes redimensionar

Tom:

  
E|-------------------------------------------------| 
B|-------------------------------------------------| 
G|-------------------------------------------------| 
D|-------------------5/9--------------5/9----------| 
A|-------------------------------------------------| 
E|-----7---4-7---5----------7---4-7----------------| 

E|-------------------------------------------------| 
B|-------------------------------------------------| 
G|-------------------------------------------------| 
D|---------------5/9---------------5/9-------------| 
A|-------------------------------------------------| 
E|-----2-0-2-3----------2-0-2-3--------------------| 
  

top 5 | palankin
top gospel
Outras músicas do artista letras do(a) Palankin
Top cifras »Top artistas »
Petaxxon Comunicação Online
Cifras.com.br - Melhor e mais completo site de cifras e tablaturas do Brasil
Mais de 1 milhão de acordes de músicas cadastradas desde 2003
As informações contidas no nosso site são colaborações de seus usuários e podem conter erros, sendo assim, não nos responsabilizamos sobre nenhuma destas.
close
menos
mais
close
Cor dos acordes:

Cor da letra:

 

save
close
close
 
redimensionar