Cifras e Tablaturas
Pandora101

Pandora101

Red Army

Cifras Cancelar Versão de Impressão
cifras

Pandora101 - Red Army

fixar na tela  
Exibindo: vídeo-aula ver clipes redimensionar

Tom:

  
E|--------------------------------------------------------------------------------------| 
B|--------------------------------------------------------------------------------------| 
G|-/8---6-4/6---8-11/13~-11-8/6-4~-----/4h6h8-------------------------------------------| 
D|--------------------------------------------4-6-8-------------------4-6-8-------------| 
A|--------------------------------------------------4-6-7-------4-6-7-------4-6-7-------| 
E|--------------------------------------------------------4-6-7-------------------4-6-7-| 


E|-------19---------------------------------19--18--16------------------------------------| 
B|-19b21----21r19b19---14b16r14-12h14~------------------19--17--16------------------------| 
G|--------------------------------------/16---16--16--16--16--16--16-18b20r18b20r18-16-16-| 
D|----------------------------------------------------------------------------------------| 
A|----------------------------------------------------------------------------------------| 
E|----------------------------------------------------------------------------------------| 


E|-----------------------------------------------------------------------------------------------------| 
B|-----------------------------------------------------------------------------------------------------| 
G|-/13-11-13-13ha~---6/8-4-6ha~---6b8r6b8r6ha-6--------------------------------------4-6-8-------4-6-8-| 
D|----------------------------------------------4/6-4--------------------------4-6-8-------4-6-8-------| 
A|----------------------------------------------------7-6-4--------------3-4-6-------------------------| 
E|----------------------------------------------------------7-6-4--3-4-6-------------------------------| 

                                  

E|-------7-9-11--14~-11----------| 
B|-5-7-9---------------14-12-12~-| 
G|-------------------------------| 
D|-------------------------------| 
A|-------------------------------| 
E|-------------------------------| 


                   T 

E|-h9p7h6p4-h11p7h6p4-h12p7h6p4-h14p7h6p4-| 
B|----------------------------------------| 
G|----------------------------------------| 
D|----------------------------------------| 
A|----------------------------------------| 
E|----------------------------------------| 


         T                        T                     T                          T 

E|-h12p7h6p4-h11p7p6p4-h9p7h6p4-h11p7h6p4-h12p7h6p4-h11p7p6p4-h9p7h6p4-h11p7h6p4-h12p7h6p4-| 
B|-----------------------------------------------------------------------------------------| 
G|-----------------------------------------------------------------------------------------| 
D|-----------------------------------------------------------------------------------------| 
A|-----------------------------------------------------------------------------------------| 
E|-----------------------------------------------------------------------------------------| 


E|------11-9-11-9-11-9-11-9-11/14~-11------------16-----------14--11----------------------------| 
B|-/15~-------------------------------14b16r14b16--16r14--------------14--12-11-----------------| 
G|-------------------------------------------------------11-11--11--11--11------13-11-11-13-13~-| 
D|----------------------------------------------------------------------------------------------| 
A|----------------------------------------------------------------------------------------------| 
E|----------------------------------------------------------------------------------------------| 
  

top 5 | pandora101
top rock'n roll
Outras músicas do artista letras do(a) Pandora101
Top cifras »Top artistas »
Petaxxon Comunicação Online
Cifras.com.br - Melhor e mais completo site de cifras e tablaturas do Brasil
Mais de 1 milhão de acordes de músicas cadastradas desde 2003
As informações contidas no nosso site são colaborações de seus usuários e podem conter erros, sendo assim, não nos responsabilizamos sobre nenhuma destas.
close
menos
mais
close
Cor dos acordes:

Cor da letra:

 

save
close
close
 
redimensionar