Cifras e Tablaturas
Pantera

Pantera

Floods

Cifras Cancelar Versão de Impressão

Pantera - Floods

Tom:

  			              Floods,(cool riff before solo) 
 
~=vibrato 
b(1.5)= number of steps to bend 
A.H=artificial harmonic 
P.H=pinch harmonic 
N.H=naturalharmonic 
T= tap 
sl.=slide 
h=hammer-on 
p=pull-off 
pb=pre bend 
r= release bend 
I KNOW this is 100% right 
 
                                             
-------------------------------------------------------- 
-------------------------------------------------------- 
-----------------8-----8sl.-9-8~~~~-6h-8p-6--4sl.-6~~~-- 
--------------6-----6----------------------------------- 
--15-------4-------------------------------------------- 
--15-sl.------------------------------------------------ 
                                    P.H     P.H----} 
 
-------------------------------------------------------- 
-------------------------------------------------------- 
-------------------------------------------------------- 
---------------9----9sl.--11-14~~-13~~-11~~-------------------------------- 
------------7----7---------------------------------------- 
---0sl.--5---------------------------------------------- 
                          P.H--------------} 
 
-------------------------------------------------------- 
-------------------------------------------------------- 
-------------------------------------------------------- 
------6---6sl.--7-6~~~~-4h--6p--4--2sl.--4-------------- 
----4---4----------------------------------------------- 
--2----------------------------------------------------- 
               P.H------------------------} 
 
-------------------------------------------------------- 
-------------------------------------------------------- 
------6---6b1.5)~~~--4h--6p--4p-2h-4--4b(2)~~~~~-------- 
----4---4----------------------------------------------- 
--2----------------------------------------------------- 
-------------------------------------------------------- 
     P.H   P.H      P.H-----------------} 
 
-------------------------------------------------------- 
-------------------------------------------------------- 
-------8----8sl.-9sl.--11~~~~-9pb(1)r~~~---------------- 
----6----6---------------------------------------------- 
--4----------------------------------------------------- 
-------------------------------------------------------- 
                             P.H------} 
 
-------------------------------------------------------- 
-------------------------------------------------------- 
-------------------------------------------------------- 
---------9---9sl.--11--13-14-13-14-13-11~~~~------------ 
-------7---7-------------------------------------------- 
--sl.5-------------------------------------------------- 
                   P.H---------------------} 
 
-------------------------------------------------------- 
-------------------------------------------------------- 
-------------------------------------------------------- 
------6---6sl.--7-6~~~~-4h--6p--4--2sl.--4-------------- 
----4---4----------------------------------------------- 
--2----------------------------------------------------- 
               P.H------------------------} 
 
-------------------------------------------------------- 
-------------------------------------------------------- 
------6---6b(1)-4h-6p-4-2h-4-2`~~~~~~~----------------- 
----4---4----------------------------------------------- 
--2----------------------------------------------------- 
-------------------------------------------------------- 
                           P.H-------} 

    	
fixar
fixar inscrever-se

enviado porenviado por: metallica123
cifra enviadaCorrigida por: sem correções
logo top cifrasComente
ico música do artistaMúsicas deste artista
ico curtiuCurtiu?
ico destaqueDestaque
Petaxxon Comunicação Online

Cifras.com.br - Melhor e mais completo site de cifras e tablaturas do Brasil Mais de 1 milhão de acordes de músicas cadastradas desde 2003
As informações contidas no nosso site são colaborações de seus usuários e podem conter erros, sendo assim, não nos responsabilizamos sobre nenhuma destas.

close
menos
mais
close
Cor dos acordes:

Cor da letra:

close
Alinhar acordes a direita Alinhar acordes a esquerda Alinhar acordes em baixo Alinhar acordes no topo
close
  Mostrar todos os acordes Esconder acordes muito fáceis Esconder acordes fáceis Esconder acordes intermediários
redimensionar
glossário