Cifras e Tablaturas
Papa Roach

Papa Roach

Wish You Never Met Me

Cifras Cancelar Versão de Impressão
cifras

Papa Roach - Wish You Never Met Me

fixar na tela  
Exibindo: vídeo-aula ver clipes redimensionar
  
Tuning: Drop D 
    
e|-----------------------------------------------------------------------------------------------------------| 
B|-----------------------------------------------------------------------------------------------------------| 
G|--------------444444------------------444444------------------444444666666------------999999-6-\4~----------| 
D|--444444777777xxxxxx777777444444777777xxxxxx666666444444777777xxxxxxxxxxxx444444777777xxxxxx---------------| 
A|--xxxxxxxxxxxx------xxxxxxxxxxxxxxxxxx------xxxxxxxxxxxxxxxxxx------------xxxxxxxxxxxx---------------------| 
D|-----------------------------------------------------------------------------------------------------------| 
                     
e|-----------------------------------------------------------------------------------------------------------| 
B|----2----5----9--------5--------12-12-12-12-12-12-14-14-14-14-14-14------------------------------------| 
G|---2-2--4-4--6-6--X2--4-4-------x--x--x--x--x--x--x--x--x--x--x--x-------------------------------------| 
D|--4----6----7--------6----------9--9--9--9--9--9--11-11-11-11-11-11------------------------------------| 
A|----------------After first time---------------------------------------------------------------------------| 
D|-----------------------------------------------------------------------------------------------------------| 

e|-----------------------------------------------------------------------------------------------------------| 
B|---Do this twice-------------------------------------------------------------------------------------------| 
G|--2---------2------1st time----2nd time--------------------------------------------------------------------| 
D|--2-4-2-4---2-4-2-4-/5-2-----6-4-----------------------------------------------------------------------| 
A|--0-4-2-4---0-4-2-4-/5-2-----4-2-----------------------------------------------------------------------| 
D|----4-2-4-----4-2-4-/5-2---------------------------------------------------------------------------------| 

e|------------------1st time-----2nd time--------------------------------------------------------------------| 
B|--7----9----10---9----5-----12---9---------------------------------------------------------------------| 
G|--x-x8-x-x8-x-x8-x-x4-x-x4--x-x4-x-x4---------Now repeat the beginning to here again-------------------| 
D|--4----6----7----6----2-----9----6----4\---------------------------------------------------------------| 
A|----------------------------------------4\---------------------------------------------------------------| 
D|----------------------------------------4\---------------------------------------------------------------| 

e|-----------------------------------------------------------------------------------------------------------| 
B|-----------------------------------------------------------------------------------------------------------| 
G|------------------------------------------666666-x2-999999-x2----------------------------------------------| 
D|--444444-x4-666666-x4-777777-x2-999999-x2-xxxxxx----xxxxxx-------------------------------------------------| 
A|--xxxxxx----xxxxxx----xxxxxx----xxxxxx---------------------------------------------------------------------| 
D|-----------------------------------------------------------------------------------------------------------| 

e|-----------------------------------------------------------------------------------------------------------| 
B|----------------------------------------------------------------------------------------------17-14-17-17~-| 
G|-/14----14-13--13-13\--/16--16-16--16-18--18-18~~\--13tr14tr-16-14-16-16-16~-18-14-18-18-14-18-------------| 
D|----14~------14-----------14-----14-----16-----------------------------------------------------------------| 
A|-----------------------------------------------------------------------------------------------------------| 
D|-----------------------------------------------------------------------------------------------------------| 

e|-----------------------------------------------------------------------------------------------------------| 
B|-----------------------------------------------------------------------------------------------------------| 
G|--2---------2------1st time---2nd time----3rd time---4th---------------------------------------------------| 
D|--2-4-2-4---2-4-2-4-/5-2---xxx--xxx---/5-/5---6-4--------------------------------------------------| 
A|--0-4-2-4---0-4-2-4-/5-2---xxx--xxx---/5-/5---4-2--------------------------------------------------| 
D|----4-2-4-----4-2-4-/5-2---xxx--xxx---/5-/5----------------------------------------------------------| 

e|------------------1st time-----2nd time--------------------------------------------------------------------| 
B|--7----9----10---9----5-----12---9---------------------------------------------------------------------| 
G|--x-x8-x-x8-x-x8-x-x4-x-x4--x-x4-x-x4-----Do this whole thing twice------------------------------------| 
D|--4----6----7----6----2-----9----6---------------------------------------------------------------------| 
A|---------------------------------------------------------------------------------------------------------| 
D|---------------------------------------------------------------------------------------------------------| 

e|------------------1st time-----2nd time--------------------------------------------------------------------| 
B|--7----9----10---9----5-----12---9---------------------------------------------------------------------| 
G|--x-x8-x-x8-x-x8-x-x4-x-x4--x-x4-x-x4---------Now repeat the beginning to here again-------------------| 
D|--4----6----7----6----2-----9----6----4\---------------------------------------------------------------| 
A|----------------------------------------4\---------------------------------------------------------------| 
D|----------------------------------------4\---------------------------------------------------------------| 

e|-----------------------------------------------------------------------------------------------------------| 
B|-----------------------------------------------------------------------------------------------------------| 
G|------------------------------------------------Repeat twice-----------------------------------------------| 
D|--444444-x2-666666-x2-777777-x2-666666-x2------------------------------------------------------------------| 
A|--xxxxxx----xxxxxx----xxxxxx----xxxxxx---------------------------------------------------------------------| 
D|-----------------------------------------------------------------------------------------------------------| 

************************************ 

| /   slide up 
| \   slide down 
| ~   vibrato 
| x   Mute note 
| tr  Tremolo pick 
************************************ 
  

top 5 | papa roach
top rock'n roll
Outras músicas do artista letras do(a) Papa Roach
Top cifras »Top artistas »
Petaxxon Comunicação Online
Cifras.com.br - Melhor e mais completo site de cifras e tablaturas do Brasil
Mais de 1 milhão de acordes de músicas cadastradas desde 2003
As informações contidas no nosso site são colaborações de seus usuários e podem conter erros, sendo assim, não nos responsabilizamos sobre nenhuma destas.
close
menos
mais
close
Cor dos acordes:

Cor da letra:

 

save
close
close
 
redimensionar