Cifras e Tablaturas
Parachute

Parachute

What Side Of Love

Cifras Cancelar Versão de Impressão
cifras

Parachute - What Side Of Love

fixar na tela  
Exibindo: vídeo-aula ver clipes redimensionar
  
Verse 
e|--------------------------------------------------------------------------| x3 
B|-----2--------------------------------------------------------------------| 
G|---------2~-------------1-------------------------------------------------| 
D|----2--x-2~----x-----------x-1~-------------------------------------------| 
A|--4----x-4~----x-------2---x-2~-------------------------------------------| 
E|-------x-------x-----0-----x----------------------------------------------| 

e|--------------------------------------------------------------------------| x1 
B|-----2--------------------------------------------------------------------| 
G|---------2~---------------------------------------------------------------| 
D|----2--x-2~--------6~/4~/9------------------------------------------------| 
A|--4----x-4~--------7~/6~/11-----------------------------------------------| 
E|-------x--------------------------------------------------------=---------| 

e|--------------------------------------------------------------------------| x3 
B|-----2--------------------------------------------------------------------| 
G|---------2~-------------1-------------------------------------------------| 
D|----2--x-2~----x-----------x-1~-------------------------------------------| 
A|--4----x-4~----x-------2---x-2~-------------------------------------------| 
E|-------x-------x-----0-----x----------------------------------------------| 

Pre-Chorus 
e|--------------------------------------------------------------------------| x1 
B|-----2--------------------------------------------------------------------| 
G|---------2~---------------------------------------------------------------| 
D|----2--x-2~--------6~/4~/9------------------------------------------------| 
A|--4----x-4~--------7~/6~/11-----------------------------------------------| 
E|-------x--------------------------------------------------------=---------| 

Chorus 
e|--------------------------------------------------------------------------| x3 
B|------2-------------------------------------------------------------------| 
G|-----2----2~--------------1-----------------------------------------------| 
D|----2---x-2~----x--------1---x-1~-----------------------------------------| 
A|--4-----x-4~----x-------2----x-2~-----------------------------------------| 
E|--------x-------x-----0------x--------------------------------------------| 

e|--------------------------------------------------------------------------| x1 
B|------2------------------------0~-----------------------------------------| 
G|-----2----2~--------------1-----------------------------------------------| 
D|----2---x-2~----x--------1---x-1~-----------------------------------------| 
A|--4-----x-4~----x-------2----x-2~-----------------------------------------| 
E|--------x-------x-----0------x--------------------------------------------| 

Bridge 
e|--------------------------------------------------------------------------| 
B|-----------------------------------------------------resume on "with me"--| 
G|--2~--1~------1~----2~--1---either repeat or------------------------------| 
D|--2~--2~--1~--2~----2~--2---pause for vocals---------------------2~-/-6~--| 
A|--4~--2~--2~--2~----4~--2----------------------------------------4~-/-6~--| 
E|----------2~--------------------------------------------------------------| 


*********************************** 

| x   Slap them strings like C Brown 
| /   Slip'n slide those strings 
| ~   Hold that note like you hold yo momma 

*********************************** 
  

cifra enviadasem correções
enviado porenviada por:hugo_rodrigues
top 5 | parachute
top rock'n roll
Outras músicas do artista letras do(a) Parachute
Top cifras »Top artistas »
Petaxxon Comunicação Online
Cifras.com.br - Melhor e mais completo site de cifras e tablaturas do Brasil
Mais de 1 milhão de acordes de músicas cadastradas desde 2003
As informações contidas no nosso site são colaborações de seus usuários e podem conter erros, sendo assim, não nos responsabilizamos sobre nenhuma destas.
close
menos
mais
close
Cor dos acordes:

Cor da letra:

 

save
close
close
 
redimensionar