Cifras e Tablaturas
Paramore

Paramore

Everywhere

Cifras Cancelar Versão de Impressão
cifras

Paramore - Everywhere

fixar na tela  
Exibindo: vídeo-aula ver clipes redimensionar

Tom:

  
Intro 
(Gtr 1) 
e|---------------------------------------------------------------------------| 
B|-----------------4---------------16--------------4-------------------------| 
G|-----------------4---------------16--------------4-------------------------| 
D|-----------------4---------------16--------------4-------------------------| (x2) 
A|---------------------------------------------------------------------------| 
E|---------------------------------------------------------------------------| 

(Gtr 2) 
e|---------------------------------------------------------------------------| 
B|---------------------------------------------------------------------------| 
G|---------------------------------------------------------------------------| 
D|--2--2-2--4--------2--2-2--4---------2--2-2--4-----------------------------| (x2) 
A|-------------2--2-------------2--2--------------2--2--4--4-4--2--0--2------| 
E|---------------------------------------------------------------------------| 
    PM PM PM PM PM PM PM PM PM PM PM PM PM PM PM PM PM PM PM PM PM PM PM  

Verse 
(Gtr 1) 
e|---------------------------------------------------------------------------| 
B|-----------------4---------------4--------------4--------------------------| 
G|-----------------4---------------4--------------4--------------------------| 
D|-----------------4---------------4--------------4--------------------------| (x2) 
A|---------------------------------------------------------------------------| 
E|---------------------------------------------------------------------------| 

(Gtr 2) 
e|---------------------------------------------------------------------------| 
B|---------------------------------------------------------------------------| 
G|---------------------------------------------------------------------------| 
D|--2-22-4------2-22-4------2-22-4-------------------------------------------| (x2) 
A|---------2-2---------2-2---------2-2--4-44-2-0-2---------------------------| 
E|---------------------------------------------------------------------------| 
   PM PM PM PM PM PM PM PM PM PM PM PM PM PM PM PM  

Chorus 
(Gtr 1) 
e|-----------------------------------------44-4--44-4------------------------| 
B|-----------------------------------------55-5--55-5------------------------| 
G|--------9-9-8h9---------8-11-8h9---------44-4--44-4------------------------| 
D|---------------------------------------------------------------------------| (x2) 
A|---------------------------------------------------------------------------| 
E|---------------------------------------------------------------------------| 

(Gtr 2) 
e|---------------------------------------------------------------------------| 
B|---------------------------------------------------------------------------| 
G|---------------------------------------------------------------------------| 
D|--------4-6-4h6---------6-6-4h6--------------------------------------------| (x2) 
A|---------------------------------------------------------------------------| 
E|---------------------------------------------------------------------------| 

Interlude 
(Gtr 1) 
e|---------------------------------------------------------------------------| 
B|-----------------4---------------4--------------4--------------------------| 
G|-----------------4---------------4--------------4--------------------------| 
D|-----------------4---------------4--------------4--------------------------|  
A|---------------------------------------------------------------------------| 
E|---------------------------------------------------------------------------| 

(Gtr 2) 
e|---------------------------------------------------------------------------| 
B|---------------------------------------------------------------------------| 
G|---------------------------------------------------------------------------| 
D|--2--2-2--4--------2--2-2--4---------2--2-2--4-----------------------------|  
A|-------------2--2-------------2--2--------------2--2--4--4-4--2--0--2------| 
E|---------------------------------------------------------------------------| 
    PM PM PM PM PM PM PM PM PM PM PM PM PM PM PM PM PM PM PM PM PM PM PM  

verse 2 
(Gtr 1) 
e|---------------------------------------------------------------------------| 
B|-----------------4---------------4--------------4--------------------------| 
G|-----------------4---------------4--------------4--------------------------| 
D|-----------------4---------------4--------------4--------------------------| (x2) 
A|---------------------------------------------------------------------------| 
E|---------------------------------------------------------------------------| 

(Gtr 2) 
e|---------------------------------------------------------------------------| 
B|---------------------------------------------------------------------------| 
G|---------------------------------------------------------------------------| 
D|--2--2-2--4--------2--2-2--4---------2--2-2--4-----------------------------| (x2) 
A|-------------2--2-------------2--2--------------2--2--4--4-4--2--0--2------| 
E|---------------------------------------------------------------------------| 
    PM PM PM PM PM PM PM PM PM PM PM PM PM PM PM PM PM PM PM PM PM PM PM  

Chorus 
(Gtr 1) 
e|-----------------------------------------44-4--44-4------------------------| 
B|-----------------------------------------55-5--55-5------------------------| 
G|--------9-9-8h9---------8-11-8h9---------44-4--44-4------------------------| 
D|---------------------------------------------------------------------------| (x2) 
A|---------------------------------------------------------------------------| 
E|---------------------------------------------------------------------------| 

(Gtr 2) 
e|---------------------------------------------------------------------------| 
B|---------------------------------------------------------------------------| 
G|---------------------------------------------------------------------------| 
D|--------4-6-4h6---------6-6-4h6--------------------------------------------| (x2) 
A|---------------------------------------------------------------------------| 
E|---------------------------------------------------------------------------| 

Bridge 
(Gtr 1) 
e|--0---0---0---0---0--------------------------------------------------------| 
B|---4---4---4---4---4--4----------------------------------------------------| 
G|----4---4---4---4---4------------------------------------------------------| 
D|---------------------------------------------------------------------------| (x4) 
A|---------------------------------------------------------------------------| 
E|---------------------------------------------------------------------------| 

e|---------------------------------------------------------------------------| 
B|---------------------------------------------------------------------------| 
G|-----16N-------------------------------------------------------------------| 
D|---------------------------------------------------------------------------| 
A|--2N-----------------------------------------------------------------------| 
E|---------------------------------------------------------------------------| 

verse 3 "come on baby..." 
(Gtr 1) 
e|---------------------------------------------------------------------------| 
B|----------4-----------4----------4-----------------------------------------| 
G|----------4-----------4----------4-----------------------------------------| 
D|----------4-----------4----------4-----------------------------------------|  
A|---------------------------------------------------------------------------| 
E|---------------------------------------------------------------------------| 

(Gtr 2) 
e|---------------------------------------------------------------------------| 
B|---------------------------------------------------------------------------| 
G|---------------------------------------------------------------------------| 
D|--2--2-2--4-------2--2-2--4---------2--2-2--4------------------------------|  
A|-------------2--2-------------2--2-------------2--2--4--4-4--2--0--2-------| 
E|---------------------------------------------------------------------------| 
    PM PM PM PM PM PM PM PM PM PM PM PM PM PM PM PM PM PM PM PM PM PM PM  
then 
e|---------------------------------------------------------------------------| 
B|---------------------------------------------------------------------------| 
G|---------------------------------------------------------------------------| 
D|--2--2-2--4-------2--2-2--4--------2--2-2--4-------------------------------|  
A|-------------2--2------------2--2-------------2-2--------------------------| 
E|---------------------------------------------------------------------------| 
   PM PM PM PM PM PM PM PM PM PM PM PM PM PM PM PM PM 

Chorus 
(Gtr 1) 
e|-----------------------------------------4-4--4--4-4--4--------------------| 
B|-----------------------------------------5-5--5--5-5--5--------------------| 
G|--------9-9-8h9---------8-11-8h9---------4-4--4--4-4--4--------------------| 
D|---------------------------------------------------------------------------| (x4) 
A|---------------------------------------------------------------------------| 
E|---------------------------------------------------------------------------| 

(Gtr 2) 
e|---------------------------------------------------------------------------| 
B|---------------------------------------------------------------------------| 
G|---------------------------------------------------------------------------| 
D|--------4-6-4h6---------6-6-4h6--------------------------------------------| (x4) 
A|---------------------------------------------------------------------------| 
E|---------------------------------------------------------------------------| 

Outro 
(Gtr 1) 
e|--0---0---0---0---0--------------------------------------------------------| 
B|---4---4---4---4---4--4----------------------------------------------------| 
G|----4---4---4---4---4------------------------------------------------------| 
D|---------------------------------------------------------------------------| (x8) 
A|---------------------------------------------------------------------------| 
E|---------------------------------------------------------------------------| 

(Gtr 2) 
e|--0-0-0-0-0-0-0-0-0-0-0-0-0-0-----------------------------------------------| 
B|--0-0-0-0-0-0-0-0-0-0-0-0-0-0-----------------------------------------------| 
G|--1-1-1-1-1-1-1-1-1-1-1-1-1-1-----------------------------------------------| 
D|--2-2-2-2-2-2-2-2-2-2-2-2-2-2-----------------------------------------------| (x8) 
A|--2-2-2-2-2-2-2-2-2-2-2-2-0-0-----------------------------------------------| 
E|--0-0-0-0-0-0-0-0-0-0-0-0-0-0-----------------------------------------------| 


************************************ 

| h   Hammer-on 
| /   Slide up 
| PM  Palm mute 
| N   Tremolo 

************************************ 
  

top 5 | paramore
top rock alternativo
Outras músicas do artista letras do(a) Paramore
Top cifras »Top artistas »
Petaxxon Comunicação Online
Cifras.com.br - Melhor e mais completo site de cifras e tablaturas do Brasil
Mais de 1 milhão de acordes de músicas cadastradas desde 2003
As informações contidas no nosso site são colaborações de seus usuários e podem conter erros, sendo assim, não nos responsabilizamos sobre nenhuma destas.
close
menos
mais
close
Cor dos acordes:

Cor da letra:

 

save
close
close
 
redimensionar