Cifras e Tablaturas
Passion

Passion

Glorious Day

Cifras Cancelar Versão de Impressão
cifras

Passion - Glorious Day

fixar na tela  
Exibindo: vídeo-aula ver clipes redimensionar

Tom:

  
Verse 
e|------------------------|----------------10---|--------------------------------| 
B|-3-----7----10/12---10--|--7----5----8--------|-3------8-----------------------| 
G|-2-----7----------------|---------------------|-2------7-----------------------| 
D|-0----------------------|---------------------|-0------5-----------------------| 
A|-0----------------------|---------------------|-0------------------------------| 
E|-0----------------------|---------------------|-0------------------------------| 

Chorus x2 
e|----------------------------|--------------------------------------------------| 
B|-15p14----------------------|----8--x 8 Times----------------------------------| 
G|-------16p14---14---14------|----7---------------------------------------------| 
D|---------------16---16---14-|--------------------------------------------------| 
A|----------------------------|--------------------------------------------------| 
E|----------------------------|--------------------------------------------------| 

Chorus 2nd Part 
e|--------------------------|--------------------|-------------------------------| 
B|-10-------10--------------|-10---10--10---10---|-8--x 8 Times------------------| 
G|----9h11-----9h11---9h11--|-------9h-11----9---|-7-----------------------------| 
D|--------------------------|--------------------|-------------------------------| 
A|--------------------------|--------------------|-------------------------------| 
E|--------------------------|--------------------|-------------------------------| 

Repeat Chorus Part 1 only once 

Verse 
e|---------------------------------------------------------------------------| 
B|--3----7---7----8----3----3------------------------------------------------| 
G|--2----7---7---------2----0------------------------------------------------| 
D|--0-------------9----0----0------------------------------------------------| 
A|--0------------------0----x------------------------------------------------| 
E|--0------------------0----5------------------------------------------------|  


************************************ 

| /  Slide up 
| p  Pull-off 
| h  Hammer-on 
| x  Dead note 

************************************ 
  

top 5 | passion
top gospel
Outras músicas do artista letras do(a) Passion
Top cifras »Top artistas »
Petaxxon Comunicação Online
Cifras.com.br - Melhor e mais completo site de cifras e tablaturas do Brasil
Mais de 1 milhão de acordes de músicas cadastradas desde 2003
As informações contidas no nosso site são colaborações de seus usuários e podem conter erros, sendo assim, não nos responsabilizamos sobre nenhuma destas.
close
menos
mais
close
Cor dos acordes:

Cor da letra:

 

save
close
close
 
redimensionar