Cifras e Tablaturas
Pat Metheny

Pat Metheny

James Tablatura Verificada

Cifras Cancelar Versão de Impressão
cifras

Pat Metheny - James

fixar na tela  
Exibindo: vídeo-aula ver clipes redimensionar

Tom:

  
e|-------5-------------5------------------------------------------| 
B|---6/7---12--6/7--5-----7---------------------------------------| 
G|---------11-------6-----7---------------------------------------| 
D|----------9-------5-----0---------------------------------------| 
A|-5-------10-----------------------------------------------------| 
E|------------------5-----7---------------------------------------| 


e|--7--7-------7-------7-------7-------------7--------------------| 
B|-10-----10--10--10--10----10----10------10----10----------------| 
G|--9----------9-------9--9-------------9-------------------------| 
D|----------------------------------------------------------------| 
A|-10----------9------10--------------9---------------------------| 
E|----------------------------------------------------------------| 


e|-------5-----10--12--------12--10-------------------------------| 
B|---6/7---12-------8------8------7-------------------------------| 
G|---------11-------9----8--------9-------------------------------| 
D|----------9-------8--9----------7-------------------------------| 
A|-5-------10-----------------------------------------------------| 
E|----------------------------------------------------------------| 


e|-------10-------------------------------------------------------| 
B|-10h12----10h12~------10----------------------------------------| 
G|-----------------9h11----9h11~\9-----7--------------------------| 
D|---------------------------------7h9---7h9-----7----------------| 
A|-------------------------------------------7h9---7h9------------| 
E|----------------------------------------------------------------| 


e|-------10-------------------------------------------------------| 
B|-10h12----10h12~------10----------------------------------------| 
G|-----------------9h11----9h11~\9-----7------------------10------| 
D|---------------------------------7h9---7h9-10\9p7-9----9h11-----| 
A|----------------------------------------------------------------| 
E|----------------------------------------------------10----------| 


e|----------5-----------------------------------------------------| 
B|------------7-6--7--7--------10--7/8~--7------------------------| 
G|--------7--------7---------9-----------6------------------------| 
D|----7~--5--------7-------7-------------7------------------------| 
A|-5~------------------------------------5------------------------| 
E|--------6--------7-----9----------------------------------------| 


e|-5--------------------------9-------12--9/10~-----9-------------| 
B|---------9--10/12-------10--------12------------10--------------| 
G|-------9--------------9---------11-------------9----------------| 
D|-----8--------------9-------------------------------------------| 
A|---8--------------9-----------11--------------0-----------------| 
E|----------------------------------------------------------------| 


e|-9h10-12----10---------------6/7--5-----------------------------| 
B|---------------10------------7/8--7-----------------------------| 
G|------------------9h11--9\7--0----0-----------------------------| 
D|----------0-----------------------------------------------------| 
A|-----------------------------0----0-----------------------------| 
E|----------------------------------------------------------------| 


e|--9/10--10-10--9/10\7--5----------------------------------------| 
B|-11/12--12-12--8/9-----7----------------------------------------| 
G|--0-------------------------------------------------------------| 
D|----------------------------------------------------------------| 
A|--0-------------------------------------------------------------| 
E|----------------------------------------------------------------|
  

top 5 | pat metheny
top jazz
Outras músicas do artista letras do(a) Pat Metheny
Top cifras »Top artistas »
Petaxxon Comunicação Online
Cifras.com.br - Melhor e mais completo site de cifras e tablaturas do Brasil
Mais de 1 milhão de acordes de músicas cadastradas desde 2003
As informações contidas no nosso site são colaborações de seus usuários e podem conter erros, sendo assim, não nos responsabilizamos sobre nenhuma destas.
close
menos
mais
close
Cor dos acordes:

Cor da letra:

 

save
close
close
 
redimensionar