Cifras e Tablaturas
Paul Gilbert

Paul Gilbert

I Can Destroy

Cifras Cancelar Versão de Impressão
cifras

Paul Gilbert - I Can Destroy

fixar na tela  
Exibindo: vídeo-aula ver clipes redimensionar
  
 0:07 Intro 
   E. E. E  Q.    E       +W            E. E. E  H       +W 
|--------9-------------|-------------|--------9-------|---------| 
|----------12----------|-------------|----------12----|-(12)----| 
|-----9----------11b13-|-(11)--------|-----9----------|---------| 
|-11-------------------|-------------|-11-------------|---------| 
|----------------------|-------------|----------------|---------| 
|----------------------|-------------|----------------|---------| 


 0:15 Main Theme 
   E. E. E  Q.    S S    E   S S  E  S S S S S S S S S S   E. E. E E. E. E   E. E. E H 
|--------9------------|----------------------------------|----9-------9----|----9---------| 
|----------12---------|-----10-9-10--9-7-9-7-------------|-----------------|--------------| 
|-----9----------11-9-|-11-------------------9-8-9-8-6---|-----------------|--------------| 
|-11------------------|--------------------------------9-|-7-----7-6-----6-|--------------| 
|---------------------|----------------------------------|-----------------|-9-----9-7~~~-| 
|---------------------|----------------------------------|-----------------|--------------| 


 0:29 
   S  S  S  S  S  S  S  S  S  S S  S  S S  S  S    S S  S S S  S S  S S  S S  S  S S  S S 
|-----------------------------------------------|-----------9--------------9----11-9------| 
|-----------------------------------------------|-----------------------------------------| 
|-------------------------------9----13-9-------|----9-13-9---13-9----9-13---13------13-9-| 
|----11-13-11-14-13-11----11-13---13------13-11-|-11---------------11---------------------| 
|-11-------------------11-----------------------|-----------------------------------------| 
|-----------------------------------------------|-----------------------------------------| 


  S S  S S  S  S S S  S  S  S  S  S  S  S  S    S  S  S  S  S  S  S  S  H 
|---9-11-9-12-11-9---------12----16-12-------|-------16----21-16-------------| 
|-9----------------9-14-16----16-------16-14-|----17----17-------17----------| 
|--------------------------------------------|-18-------------------20-18~~~-| 
|--------------------------------------------|-------------------------------| 
|--------------------------------------------|-------------------------------| 
|--------------------------------------------|-------------------------------| 


 0:36 Verse 
  E E Q  Q  Q    E E E Q  E E E   E E Q  Q  Q    E E E Q  E E E 
|--------------|----------------|--------------|----------------| 
|--------------|----------------|--------------|----------------| 
|-6-6----------|----------------|-2-2----------|----------------| 
|-6-6----------|--------------2-|-2-2----------|-------6--4-2---| 
|-4-4----------|----------2-4---|-0-0----------|---4----------2-| 
|--------------|---0-2-4--------|--------------|-----5----------| 


 0:50 Pre-Chorus                                                       2/4 
  E E E E E E E E   E E E E E E E E   E E E E E E E E   E E E E E E E E   E E E E 
|-----------------|-----------------|-----------------|-----------------|---------| 
|-----------------|-----------------|-----------------|-----------------|---------| 
|-----------------|-----------------|-----------------|-----------------|---------| 
|-6-6-6-6-6-6-6-6-|-----------------|-----------------|---------x-x-x-x-|-x-x-x-x-| 
|-4-4-4-4-4-4-4-4-|-2-2-2-2-2-2-2-2-|-2-2-2-2-2-2-2-2-|-7-7-7-7-x-x-x-x-|-x-x-x-x-| 
|-----------------|-0-0-0-0-0-0-0-0-|-0-0-0-0-0-0-0-0-|-5-4-5-4-x-x-x-x-|-x-x-x-x-| 


 0:58 Chorus 
 4/4 
  E E E E E E E E   +W            E E E  E E E E E   +W 
|-----------------|------------|-------------------|--------| 
|-----------------|------------|-------------------|--------| 
|-6-----6-----9-9-|-(9)--------|-11-----11-----4-4-|-(4)----| 
|-6-----6-----9-9-|-(9)--------|-11-----11-----4-4-|-(4)----| 
|-4-4-4-4-4-4-7-7-|-(7)--------|--9-9-9--9-9-9-2-2-|-(2)----| 
|-----------------|------------|-------------------|--------| 


  E E E E E E E E   +W            W           +W 
|-----------------|------------|-----------|---------| 
|-----------------|------------|-----------|---------| 
|-6-----6-----9-9-|-(9)--------|-11--------|-(11)----| 
|-6-----6-----9-9-|-(9)--------|-11--------|-(11)----| 
|-4-4-4-4-4-4-7-7-|-(7)--------|--9--------|--(9)----| 
|-----------------|------------|-----------|---------| 


 2:11 Key Change 
  E. E. E Q.   S S   E  S S E  S S S S S S S S S S   E. E. E E. E. E   W 
|-------4----------|-------------------------------|-----------------|--------| 
|---------7--------|----5-4-5--4-2-4-2-------------|-----------------|--------| 
|----4---------6-4-|-6-----------------4-3-4-3-1---|---------6--8--9-|-6b8~~~-| 
|-6----------------|-----------------------------4-|-6--8--9---------|--------| 
|------------------|-------------------------------|-----------------|--------| 
|------------------|-------------------------------|-----------------|--------| 


  E. E. E Q.   S S   E  S S E  S S S S S S S S S S   E. E. E E. E. E   E. E. E E. E. E 
|-------4----------|-------------------------------|----4-------4----|----4-------4----| 
|---------7--------|----5-4-5--4-2-4-2-------------|-----------------|-----------------| 
|----4---------6-4-|-6-----------------4-3-4-3-1---|-----------------|-----------------| 
|-6----------------|-----------------------------4-|-2-----2-1-----1-|-----------------| 
|------------------|-------------------------------|-----------------|-4-----4-2-----2-| 
|------------------|-------------------------------|-----------------|-----------------| 


   E.  E.  E  Q.    S  S    E   S  S  E   S  S  S  S  S  S  S  S  S  S 
|---------16-------------|---------------------------------------------| 
|------------19----------|-----17-16-17--16-14-16-14-------------------| 
|-----16-----------18-16-|-18------------------------16-15-16-15-13----| 
|-18---------------------|------------------------------------------16-| 
|------------------------|---------------------------------------------| 
|------------------------|---------------------------------------------| 


   E.  E.  E  E.  E.  E    W 
|-----------------------|----------| 
|-----------------------|----------| 
|------------18--20--21-|-18b20~~~-| 
|-18--20--21------------|----------| 
|-----------------------|----------| 
|-----------------------|----------| 


   E.  E.  E  Q.    S  S    E   S  S  E   S  S  S  S  S  S  S  S  S  S 
|---------16-------------|---------------------------------------------| 
|------------19----------|-----17-16-17--16-14-16-14-------------------| 
|-----16-----------18-16-|-18------------------------16-15-16-15-13----| 
|-18---------------------|------------------------------------------16-| 
|------------------------|---------------------------------------------| 
|------------------------|---------------------------------------------| 


   E.  E.  E  E.  E.  E    E.  E.  E  E.  E.  E 
|-----------------------|-----------------------| 
|-----------------------|-----------------------| 
|-----13---------13-----|-----13---------13-----| 
|-14------14-13------13-|-----------------------| 
|-----------------------|-16------16-14------14-| 
|-----------------------|-----------------------| 


 2:39 Solo (corrections welcome) 
   Q.       Q.      T T S S T T   S S T T S S S S S S S S S T T S S S 
|-------------------6h9p6-------|--------------------------------------| 
|-16pb18r==16pb18r========9-6h9p|=6------------------------------------| 
|-------------------------------|---8-6h8p6---6-----6------------------| 
|-------------------------------|-----------8---8-6---8-6---6h8p6---6--| 
|-------------------------------|-------------------------8-------8----| 
|-------------------------------|--------------------------------------| 

                                                |-3-|        |-3-| 
  S S S S S S S S e  e  T T S S S   S S S S S S S S S Q.     S S S 
|---------------------------------|---------------------------------| 
|---------------------------------|---------------------------------| 
|---------------------------------|-------------6-------------------| 
|-----6---------------------------|---6-----8-6---8-6-8~~~---8-8-8--| 
|-8-7---8-7-6--------6--6h8p6---6-|-8---8-6-------------------------| 
|-------------9-6-9-----------9---|---------------------------------| 

                     |-3-| |-3-|   |-3-| |-3-| |-3-| |-3--| |-3--| |--3--| |--3--| |--3--| 
  E E E.  S T T S E  S S S S S S   S S S S S S S S S S S  S S S  S S  S  S S  S  S S  S  S 
|--------------------------------|-4h6h8-------6h8h9--------8h9h11---------9---------------| 
|--------------------------4h6h8-|-------6h8h9-------8h9h11--------9h11h13---13p11-9h11h13-| 
|---5-6~~~6-5h6p5-5--5h6h8-------|---------------------------------------------------------| 
|-8------------------------------|---------------------------------------------------------| 
|--------------------------------|---------------------------------------------------------| 
|--------------------------------|---------------------------------------------------------| 

  |--3--|  |--3--|  |-3--|  |--3--|  |--3--|  |--3--|  |--3--|  |--3--| 
  S  S  S  S  S  S  S S  S  S  S  S  S  S  S  S  S  S  S  S  S  S  S  S    Q.      H    E 
|-9h11h13-13-11-13-11-9----13-11----------13----13-16-16-13----13-16-18-|-18b20---18~~~~~-| 
|-----------------------13-------13-13-16----16-------------16----------|-----------------| 
|-----------------------------------------------------------------------|-----------------| 
|-----------------------------------------------------------------------|-----------------| 
|-----------------------------------------------------------------------|-----------------| 
|-----------------------------------------------------------------------|-----------------| 

    |--3--|  |--3--|      |--3--|  |--3--|  |--3--| 
    S  S  S  S  S  S  Q   S  S  S  S  S  S  S  S  S  +E 
|-/20-20-20-20-20-20-20--15h18p15h18p15h18p15h18p15-(15)-| 
|--------------------------------------------------------| 
|--------------------------------------------------------| 
|--------------------------------------------------------| 
|--------------------------------------------------------| 
|--------------------------------------------------------| 


  T  T S  S T  T S  S  S  S S  S S  S S  S  S S 
|-8h11p8----------------------------------------| 
|--------11-8h11p8----11-10-8-11-8----8---------| 
|------------------10--------------11---11-10-8-| 
|-----------------------------------------------| 
|-----------------------------------------------| 
|-----------------------------------------------| 


   S S  S S  E     S S  S S S  S S  S S  S    S S  S  S E  S S  H 
|------------------------------------------|-------------------------| 
|------------------------------------------|-------------------------| 
|-10-8------10b12-10-8------8--------------|------------8------------| 
|------10-8------------10-8---10-8----8-10-|----8-10------10-8-10~~~-| 
|----------------------------------10------|-10------10--------------| 
|------------------------------------------|-------------------------| 

  |--3--| |--3--|  |--3--|  |--3--|  |--3--|  |--3--|  |--3--|  |--3--| 
  S  S  S S  S  S  S  S  S  S  S  S  S  S  S  S  S  S  S  S  S  S  S  S 
|-----------------------------------------------------------------------| 
|-----------------------------------------------------13h15h16-15p13----| 
|--------------------------------------------10h12h13----------------15-| 
|-----------------10h12h13-12p10----10h12h13----------------------------| 
|---------8h10h11----------------11-------------------------------------| 
|-8h10h11---------------------------------------------------------------| 

   |--3--|  |--3--|  |--3--|  |--3--|  |--3--|  |--3--|  |-----3-----|  |--3--| 
   S  S  S  S  S  S  S  S  S  S  S  S  S  S  S  S  S  S  S  T  T  T  T  S  S  S 
|-------13h15----------13h15----------13h15----------13-16-15h16p15p13-13-15-16----| 
|-15h16-------13-15h16-------13h15h16-------13h15h16-------------------------------| 
|----------------------------------------------------------------------------------| 
|----------------------------------------------------------------------------------| 
|----------------------------------------------------------------------------------| 
|----------------------------------------------------------------------------------| 

   |-----3-----|  |--3--|  |-----3-----|  |--3--|  |--3--|  |--3--|  |--3--|  |--3--| 
   S  T  T  T  T  S  S  S  S  T  T  T  T  S  S  S  S  S  S  S  S  S  S  S  S  S  S  S 
|-18-16h18p16-15----15-16----------------------------------15-------------------------| 
|----------------18-------18-16h18p16-15----15-16-15-16-18----18-16-15-16-18-16-15----| 
|----------------------------------------17----------------------------------------17-| 
|-------------------------------------------------------------------------------------| 
|-------------------------------------------------------------------------------------| 
|-------------------------------------------------------------------------------------| 


   E     S  E     S  H       E 
|-------18-------18-------------| 
|-18b20----18b20----18b20~~~----| 
|-------------------------------| 
|-------------------------------| 
|-------------------------------| 
|-------------------------------| 


 3:07 Return to Theme 
   E.  E.  E  Q.    E       +W            E.  E.  E  H       +W 
|---------11-------------|-------------|---------11-------|---------| 
|------------14----------|-------------|------------14----|-(14)----| 
|-----11-----------13b15-|-(13)--------|-----11-----------|---------| 
|-13---------------------|-------------|-13---------------|---------| 
|------------------------|-------------|------------------|---------| 
|------------------------|-------------|------------------|---------| 


   E.  E.  E  Q.    S  S    E   S  S  E   S S  S S  S  S  S  S S  S 
|---------11-------------|------------------------------------------| 
|------------14----------|-----12-11-12--11-9-11-9------------------| 
|-----11-----------13-11-|-13----------------------11-10-11-10-8----| 
|-13---------------------|---------------------------------------11-| 
|------------------------|------------------------------------------| 
|------------------------|------------------------------------------| 


  E.  E. E E.  E. E    E.  E.  E E.  E. E     E. E. E E. E. E   E. E. E E. E. E 
|----11-------11----|-----11--------11------|----9-------9----|----9-------9----| 
|-------------------|-----------------------|-----------------|-----------------| 
|-------------------|-----------------------|-----------------|-----------------| 
|-9------9-8------8-|-----------------------|-7-----7-6-----6-|-----------------| 
|-------------------|-11------11-9------9---|-----------------|-9-----9-7-----7-| 
|-------------------|-----------------------|-----------------|-----------------| 


 3:25 Final Verse 
  W          W          W           W 
|----------|----------|----------|-------| 
|----------|----------|----------|-------| 
|-6--------|-9--------|-2--------|-11----| 
|-6--------|-9--------|-2--------|-11----| 
|-4--------|-7--------|-0--------|--9----| 
|----------|----------|----------|-------|  
  

cifra enviadasem correções
enviado porenviada por:abelamin
top 5 | paul gilbert
top rock'n roll
Outras músicas do artista letras do(a) Paul Gilbert
Top cifras »Top artistas »
Petaxxon Comunicação Online
Cifras.com.br - Melhor e mais completo site de cifras e tablaturas do Brasil
Mais de 1 milhão de acordes de músicas cadastradas desde 2003
As informações contidas no nosso site são colaborações de seus usuários e podem conter erros, sendo assim, não nos responsabilizamos sobre nenhuma destas.
close
menos
mais
close
Cor dos acordes:

Cor da letra:

 

save
close
close
 
redimensionar