Cifras e Tablaturas
Peach Pit

Peach Pit

Drop The Guillotine

Cifras Cancelar Versão de Impressão

Peach Pit - Drop The Guillotine

Tom:

  			
Intro 

e|12-12-13-12-----------------12-12-12-12--13--15--------------------8-8--8--8--8-10-8----------| 
B|13----------13-----------12----12-12-12--13-----18-15------------8---8--8--8--8------10-8-----| 
G|14-------------14-----13-------13-13-13- 14-----------17-14----9-----9--9--9-------------9----| 
D|-------------------14----------14-14-14---------------------10-------10-10-10--------------10-| 
A|----------------------------------------------------------------------------------------------| 
E|----------------------------------------------------------------------------------------------| 

e|-----------3-3-5--5--5-5-x-3-5--12-12-13-12-----------------12-12-12-12--13--15---------------| 
B|-----------3-3-5--5--5-5-x-3-5--13----------13-----------12----12-12-12--13-----18-15---------| 
G|------7/5--4-4-5--5--5-5-x-4-5--14-------------14-----13-------13-13-13--14-----------17-14---| 
D|----9----------------------------------------------14----------14-14-14-----------------------| 
A|-10-------------------------------------------------------------------------------------------| 
E|----------------------------------------------------------------------------------------------| 

e|--------8-8--8--8--8---8-10b12-10-8-----------3-3-5--5--5-5-x-3-5-----------------------------| 
B|------8---8--8--8--8-10-----------------------3-3-5--5--5-5-x-3-5-----------------------------| 
G|----9-----9--9--9-------------------------7/5-4-4-5--5--5-5-x-4-5-----------------------------| 
D|-10-------10-10-10----------------------9-----------------------------------------------------| 
A|-------------------------------------10-------------------------------------------------------| 
E|----------------------------------------------------------------------------------------------| 

Verse I 

e|-12--------12------------12--------13-----13--------------------------------------------------| 
B|-13-----13----13-----12-----12-----13--13----13--------13-13-13--13-----13-15-----------------| 
G|-14--14------------------------13--14------------------12-12-12--12--12-----------------------| 
D|------------------14--------------------------------14---------------------------12-14--------| 
A|-------------------------------------------------15-------------------------------------------| 
E|-------------------------------------------------------------------------------15-------------| 

e|-3-3-5--5--5-5-x-3-5--------------------------------------------------------------------------| 
B|-3-3-5--5--5-5-x-3-5--------------------------------------------------------------------------| 
G|-4-4-5--5--5-5-x-4-5--------------------------------------------------------------------------| 
D|----------------------------------------------------------------------------------------------| 
A|----------------------------------------------------------------------------------------------| 
E|----------------------------------------------------------------------------------------------| 

e|-12--------12------------12--------13-----13--------------------------------------------------| 
B|-13-----13----13-----12-----12-----13--13----13--------13-13-13--13--15-13--------------------| 
G|-14--14------------------------13--14------------------12-12-12--12--------12-----------------| 
D|------------------14--------------------------------14---------------------------12-14--------| 
A|-------------------------------------------------15-------------------------------------------| 
E|-------------------------------------------------------------------------------15-------------| 

e|-3-3-5--5--5-5-x-3-5--------------------------------------------------------------------------| 
B|-3-3-5--5--5-5-x-3-5--------------------------------------------------------------------------| 
G|-4-4-5--5--5-5-x-4-5--------------------------------------------------------------------------| 
D|----------------------------------------------------------------------------------------------| 
A|----------------------------------------------------------------------------------------------| 
E|----------------------------------------------------------------------------------------------| 


Pre-Chorus I 

e|----------------------------------------------------------------------------------------------| 
B|----------------------------------------------------------------------------------------------| 
G|-----2-4--5------5-7--9----2-4--5------5-7--9-------------------------------------------------| 
D|---4-----------7---------4-----------7--------------------------------------------------------| 
A|-5-----------8---------5-----------8----------------------------------------------------------| 
E|----------------------------------------------------------------------------------------------| 

Chorus 
  (8x) (8x) (8x) (8x) (8x) (8x) (8x)    (played fast)       (8x) (8x) (7x) (let ring) 
e|-8---------13---8----8---------13---13--13131313--15-13----8---------13---10--12-10-----------| 
B|-8----15---13---8----8----15---13---13--13131313--13-13----8----15---13---10--------10--------| 
G|-9----13---14---9----9----13---14---14--14141414--14-14----9----13---14---11-----------11-----| 
D|-10---14--------10---10---14-------------------------------10---14----------------------------| 
A|----------------------------------------------------------------------------------------------| 
E|----------------------------------------------------------------------------------------------| 
  (8x) (8x) (16x)(slide all the way down)  
e|-8---------13---12//------------------------------------------------------------------------------| 
B|-8----15---13---13//------------------------------------------------------------------------------| 
G|-9----13---14---14//------------------------------------------------------------------------------| 
D|-10---14--------------------------------------------------------------------------------------| 
A|----------------------------------------------------------------------------------------------| 
E|----------------------------------------------------------------------------------------------| 

Verse II 
(long rest)                      (4x)(4x)(4x)(4x)(staccato) 
e|---------3-3-5--5--5-5-x-3-5----5---0---5---8---10-8-8-8-----------3-3-5--5--5-5-x-3-5--------| 
B|---------3-3-5--5--5-5-x-3-5----5---0---6---8---8--8-8-8--8-8-8-8--3-3-5--5--5-5-x-3-5--------| 
G|---------4-4-5--5--5-5-x-4-5------------------------------7-7-7-7--4-4-5--5--5-5-x-4-5--------| 
D|----------------------------------------------------------------------------------------------| 
A|----------------------------------------------------------------------------------------------| 
E|----------------------------------------------------------------------------------------------| 

Pre-Chorus I 
    * 
Chorus 
    * 

Verse III 


e|12-12-13-12-----------------12-12-12-12--13--15--------------------8-8--8--8--8--10b12-10-8---| 
B|13----------13-----------12----12-12-12--13-----18-15------------8---8--8--8--8-------------10| 
G|14-------------14-----13-------13-13-13- 14-----------17-14----9-----9--9--9------------------| 
D|-------------------14----------14-14-14---------------------10-------10-10-10-----------------| 
A|----------------------------------------------------------------------------------------------| 
E|----------------------------------------------------------------------------------------------| 

e|-----------3-3-5--5--5-5-x-3-5--12-12-13-12-----------------12-12-12-12--13--15---------------| 
B|-----------3-3-5--5--5-5-x-3-5--13----------13-----------12----12-12-12--13-----18-15---------| 
G|------7/5--4-4-5--5--5-5-x-4-5--14-------------14-----13-------13-13-13- 14-----------17-14---| 
D|----9----------------------------------------------14----------14-14-14-----------------------| 
A|-10-------------------------------------------------------------------------------------------| 
E|----------------------------------------------------------------------------------------------| 
                                                                                           (8x)  
e|--------8-8--8--8---8-8----8-10-10-8-10-12-12-10-12-13-13-12-13-15-15-13-15-17-17-15-17-17b19-| 
B|------8---8--8--8-------10--------------------------------------------------------------------| 
G|----9-----9--9--9-----------------------------------------------------------(gradually bend it| 
D|-10-------10-10-10-----------------------------------------------------------to 19 in 8 times)| 
A|----------------------------------------------------------------------------------------------| 
E|----------------------------------------------------------------------------------------------| 

Pre-Chorus II 
 2x 
e|----------------------------------------------------------------------------------------------| 
B|-------10--12-13-------13--15-17--------------------------------------------------------------| 
G|----11--------------14------------------------------------------------------------------------| 
D|-12--------------15---------------------------------------------------------------------------| 
A|----------------------------------------------------------------------------------------------| 
E|----------------------------------------------------------------------------------------------| 

Verse IV 
                                            gradual 1/4-step bend) 
e|----------------------------------------------------------------------------------------------| 
B|-------------------------------------------6b----6--------------------------------------------| 
G|----------7-----5--------------------7-----5b----5--------------------------------------------| 
D|--10-x-x--6-x-x-7-x-x----x-x-10-x-x--6-x-x-7b----7--------------------------------------------| 
A|--10-x-x--7-x-x---x-x-9--x-x-10-x-x--7-x-x----------------------------------------------------| 
E|----------------------10----------------------------------------------------------------------| 

Outro 

  (8x) (8x) (8x) (8x) (8x) (8x) (8x)    (played fast)       (8x) (8x) (7x) (let ring) 
e|-8---------13---8----8---------13---13--13131313--15-13----8---------13---10--12-10-----------| 
B|-8----15---13---8----8----15---13---13--13131313--13-13----8----15---13---10--------10--------| 
G|-9----13---14---9----9----13---14---14--14141414--14-14----9----13---14---11-----------11-----| 
D|-10---14--------10---10---14-------------------------------10---14----------------------------| 
A|----------------------------------------------------------------------------------------------| 
E|----------------------------------------------------------------------------------------------| 

e|-8---12---------------------------------------------------------------------------------------| 
B|-8---13---------------------------------------------------------------------------------------| 
G|-9---14---------------------------------------------------------------------------------------| 
D|-10-------------------------------------------------------------------------------------------| 
A|----------------------------------------------------------------------------------------------| 
E|----------------------------------------------------------------------------------------------| 



************************************ 

| x  Dead note 
| /  Slide up 
| b  Bend 
  

************************************ 
    	
fixar
fixar inscrever-se

enviado porenviado por: adalgomes
cifra enviadaCorrigida por: sem correções
logo top cifrasComente
ico música do artistaMúsicas deste artista
ico curtiuCurtiu?
ico destaqueDestaque
Petaxxon Comunicação Online

Cifras.com.br - Melhor e mais completo site de cifras e tablaturas do Brasil Mais de 1 milhão de acordes de músicas cadastradas desde 2003
As informações contidas no nosso site são colaborações de seus usuários e podem conter erros, sendo assim, não nos responsabilizamos sobre nenhuma destas.

close
menos
mais
close
Cor dos acordes:

Cor da letra:

close
Alinhar acordes a direita Alinhar acordes a esquerda Alinhar acordes em baixo Alinhar acordes no topo
close
  Mostrar todos os acordes Esconder acordes muito fáceis Esconder acordes fáceis Esconder acordes intermediários
redimensionar
glossário