Cifras e Tablaturas
Pearl Jam

Pearl Jam

Inside Job Tab

Cifras Cancelar Versão de Impressão
cifras

Pearl Jam - Inside Job Tab

fixar na tela  
Exibindo: vídeo-aula ver clipes redimensionar
  
-|-------0----------------------------------------------|--------------------- 
-|----1-----1-----1---1---1---1-------------------------|--------------------- 
-|------------------0-------0------0-------0-------0----|--------------------- 
-|--2-------2------------------------2---2---2---2---2--|--------------------- 
-|--3-------3---3-------3--------2-----2-------2--------|--------------------- 
-|-------------------------------0-----0-------0--------|--------------------- 
   Intro w/ backwards effect                       2x                          
 
-|----------------------------------------------------0----0------------------ 
-|----------0------------0----------------------------0----0-----------0------ 
-|--------0---0-------0----0------------0----------0-------0-------------0---- 
-|---2----2------2----2-----------2--2--2--0--0h2--2-------2---2--2-2--------- 
-|---0h3--3------0h3--3--------2--2--2--2--0--0h2--2----2--2---3--3-3--------- 
-|-----------------------------0-----0--0---------------0--0------------------ 
 
   G1 - Rhythm Figure 1                                                        

 
-|---------0-----------------------------------------------|------------------ 
-|---------0-----------------------------------------------|------------------ 
-|----0-0--0------0---------0-------------------0-0-0------|------------------ 
-|----2-2--2---0--2--2-2----2--0--0h2--------2--2-2-2---0--|------------------ 
-|-------------0--2--2-2--2-2--0--0h2--2--2--2--2-2-2---0--|------------------ 
-|----------------0-------0------------0--0--0--0-0-0------|------------------ 
                                                       4x                      
 
-|-------------2----0--------------------------------------7--5--7------------ 
-|-------------3----0-----------------------------------------------5v-------- 
-|-----0----------------0---5v---7v---9v----5v-0--5-4v------------------------ 
-|---------------------------------------------------------------------------- 
-|---------------------------------------------------------------------------- 
-|---------------------------------------------------------------------------- 
 
   G2 - Lead - fade in 

 
-|---7--5--7-------------------------------7--5-7-----7--5--7----------------- 
-|------------3v---5v-r3h5p0--h1--/8-7-5vv--------5v-----------3v--5v-0------- 
-|---------------------------------------------------------------------------- 
-|---------------------------------------------------------------------------- 
-|---------------------------------------------------------------------------- 
-|---------------------------------------------------------------------------- 
 
   G2 

 
-|---2--2---3---3-3--3-3---3--3-3-3-3---2--2---0---0-----------0-------------- 
-|---3--3---3---3-3--3-3---3--3-3-3-3---3--3---0---0-----------0-------------- 
-|---2--2---0---0-0--0-0---0--0-0-0-0---2--2---0---0-----------0-------------- 
-|---0--0---2---2-2--2-2---2--2-2-2-2---0--0---2---2---0--0h2--2-------------- 
-|----------3---3-3--3-3---3--3-3-3-3----------2---2---0--0h2--2-------------- 
-|---------------------------------------------0---0---0--0----0-------------- 
 
   G1                                                                          

 
-|---------8-----------------------------------7------------------------------ 
-|---------------------------------------------------------------------------- 
-|---------------------------------------------------------------------------- 
-|---------------------------------------------------------------------------- 
-|---------------------------------------------------------------------------- 
-|---------------------------------------------------------------------------- 
 
   G2 

 
-|------10--8---------------------------10-----7------------------------------ 
-|----------8----8----------------------10-----8------------------------------ 
-|------------9--7-h9--------------------------------------------------------- 
-|---------------------------------------------------------------------------- 
-|---------------------------------------------------------------------------- 
-|---------------------------------------------------------------------------- 
 
   G2 

 
-|---2--2---3---3-3--3-3---3--3-3-3-3---2--2---0---0-----------0-------------- 
-|---3--3---3---3-3--3-3---3--3-3-3-3---3--3---0---0-----------0-------------- 
-|---2--2---0---0-0--0-0---0--0-0-0-0---2--2---0---0-----------0-------------- 
-|---0--0---2---2-2--2-2---2--2-2-2-2---0--0---2---2---0--0h2--2-------------- 
-|----------3---3-3--3-3---3--3-3-3-3----------2---2---0--0h2--2-------------- 
-|---------------------------------------------0---0---0--0----0-------------- 
 
   G1                                                                          

 
-|----------------------------------------------------0----0------------------ 
-|----------0------------0----------------------------0----0-----------0------ 
-|--------0---0-------0----0------------0----------0-------0-------------0---- 
-|---2----2------2----2-----------2--2--2--0--0h2--2-------2---2--2-2--------- 
-|---0h3--3------0h3--3--------2--2--2--2--0--0h2--2----2--2---3--3-3--------- 
-|-----------------------------0-----0--0---------------0--0------------------ 
 
                                                                               

 
-|---------------------------------------------------------------------------- 
-|-----0---------------0---------------------------0----------0-------------0- 
-|--0-----0-----0--0------0--------------------------0--0--0-----0----0--0---- 
-|--2-----------2--2----------------2-2-2-0--0h2-2------2--2----------2--2---- 
-|--3-----------3--3-------------2--2-2-2-0--0h2-2------3--3----------3--3---- 
-|-------------------------------0--0-0-0-0--0---0---------------------------- 
 
   Underneath this smile lies everything.               All my hopes, anger,   

 
-|---------------------------------------------------------------------------- 
-|----------------------------------0-----0------------0---------------------- 
-|--0--------0-0-0----------0-0-0---0--0----0---0-0-0-----0-------0-0--------- 
-|-----------2-2-2--0--0h2--2-2-2---2--2--------2-2-2-------------2-2--------- 
-|--------2--2-2-2--0--0h2--2-2-2---3--3--------3-3-3----------2--2-2--2--2--- 
-|--------0--0-0-0-----0----0-0-0------------------------------0--0-0--0--0--- 
 
   pride and shame.                 Make myself a pact, not to shut doors on   

 
-|----------------------------------------------------------3---3------2--2-2- 
-|------------------0-----------0---------------------------3---3------3--3-3- 
-|-------------0------0--0-0-0----0--------------------2----0---0---2--2--2-2- 
-|-0-0--2--2---2-2-------2-2-2----------2-2-2--2-2-----0----2---x---2--0------ 
-|-0-0--2--2---3-3-------3-3-3----------2-2-2--2-2----------3---2---0--------- 
-|------0--0----------------------------0-0-0--0-0---------------------------- 
 
   the past just for today....      I am free.      I will not lose my faith.  

 
-|--2---------3---3------2--2-2-2---3---------3------||----------------------- 
-|--3---------3---3------3--3-3-3---3---------3------||--------0------0------- 
-|--2---------0---0---2--2--2-2-2---0---------0---2--||--0-0-0---0----0------- 
-|--0---------2---x---2--0--0-0-0---2---------x---2--||--2-2-2--------2------- 
-|------------3---2---0-------------3---------2---0--||--3-3-3--------3------- 
-|---------------------------------------------------||----------------------- 
 
   It's an inside job today.      I know this one thing  well...               

 
-|--------------------------------------------------------3------------------- 
-|-------------------------------------------3----------------0--------------- 
-|---------------------------------------------------------------------------- 
-|---------------------------------------------------------------------------- 
-|---------------------------------------------------------------------------- 
-|---------------------------------------------------------------------------- 
 
   G2 

 
-|--------------------------------------||------------------------------------ 
-|----0---------------------------------||-----------------------0------------ 
-|----0-------0-0-0-0------------0--0---||-----------0--0-0--0-0---0---0--0-0- 
-|----2----2--2-2-2-2--2--0-0h2--2--2---||-----------2--2-2--2-2-------2--2-2- 
-|----3----2--2-2-2-2--2--0-0h2--2--2---||-----------3--3-3--3-3-------3--3-3- 
-|---------0--0-0-0-0-------0----0--0---||------------------------------------ 
  G                                  2x           I used to try and kill love 
 
-|----------------------3----2------------------------------------------------ 
-|----3-------------3----------------------------------5---------------------- 
-|-------------------------------------------------0-------------------------- 
-|---------------------------------------------------------------------------- 
-|---------------------------------------------------------------------------- 
-|---------------------------------------------------------------------------- 
 
   G2 

 
-|---------------------------------------------------------------------------- 
-|---0---------------------------------------------------0---------0---------- 
-|------0----0---------0--0-0-0-0------------0---0-0-0-0---0-0-0-0---0-------- 
-|-----------2---------2--2-2-2-2--2-0-0h2-2-2---2-2-2-2-----2-2-2-------2---- 
-|-----------3---------2--2-2-2-2--2-0-0h2-2-2---3-3-3-3-----3-3-3-------2---- 
-|---------------------0--0-0-0-0------0---0-0---------------------------0---- 
 
    It was the hightest sin.                     Breathing insecurity    out   

 
-|---------------------------------------------------------------------------- 
-|-----------------------------------0--------------0------------------------- 
-|-0-0-0----------0-0-0--0--0-0-0-0----0--0--0-0--0---0-------0-0-0-0--------- 
-|-2-2-2--2-0-0h2-2-2-2--2--2-2-2-2-------2--2-2--2-------2---2-2-2-2--2-0-0h- 
-|-2-2-2--2-0-0h2-2-2-2--3--3-3-3-3-------3--3-3--3-------3---2-2-2-2--2-0-0h- 
-|-0-0-0------0---0-0-0---------------------------------------0-0-0-0------0-- 
 
    and in               Searching hope, I'm shown the way to run straight     

 
-|---------------------------------------------------------------------------- 
-|----------------------------------------0-----------0----------------------- 
-|---0--0-0---------------------0--0-0-0----0--0--0-0---0---0--0-0-0---------- 
-|2--2--2-2-----2---2-----------2--2-2-2-------2--2-2-----2-2--2-2-2--0-0h2-2- 
-|2--2--2-2-----2---2-----------3--3-3-3-------3--3-3-----3-2--2-2-2--0-0h2-2- 
-|---0--0-0-----0---0---------------------------------------0--0-0-0---------- 
 
  pursuing the  greater way for all,..                human light              

 
-|----------------10---------------8--7--------------------------------------- 
-|---------------------------------------------------------------------------- 
-|---------------------------------------------------------------------------- 
-|---------------------------------------------------------------------------- 
-|---------------------------------------------------------------------------- 
-|---------------------------------------------------------------------------- 
 
   G2 

 
-|------------2--3--3--3---3-3-3----2--0------0--0-0------2----3---3-3-3------ 
-|------------3--3--3--3---3-3-3----3--0------0--0-0------3----3---3-3-3------ 
-|--0--0------2--0--0--0---0-0-0----2--0------0--0-0------2----0---0-0-0------ 
-|--2--2------0--2--2--2---2-2-2----0--2------2--2-2------0----2---2-2-2------ 
-|--2--2---------3--3--3---3-3-3-------2------2--2-2-----------3---3-3-3------ 
-|--0--0-------------------------------0------0--0-0-------------------------- 
 
          How I choose to feel,... is how I am.         How I choose to        

 
-|------------2--3------------------2--0-------------------------------------- 
-|------------3--3------------------3--0-------------------------------------- 
-|------------2--0------------------2--0-------------------------------------- 
-|------------0--2------------------0--2-------------------------------------- 
-|---------------3---------------------2-------------------------------------- 
-|-------------------------------------0-------------------------------------- 
 
   G2 

 
-|----3--3----2--0---0-0--0-0-----2------------------2------------------------ 
-|----3--3----3--0---0-0--0-0-----3------------------3------------------------ 
-|----0--0----2--0---0-0--0-0-----2------0---0-------2---------2----0-----0--- 
-|----2--2----0--2---2-2--2-2-----0------2---x---2---0---------0----2-----x--- 
-|----3--3-------2---2-2--2-2------------3---2---0------------------3-----2--- 
-|---------------0---0-0--0-0------------------------------------------------- 
 
   feel,... is how I am.         I will not lose my faith. It's an inside job  

 
-|-----2------3--------------------------------------------------------------- 
-|-----3------1-------------3----------------1--------------3----------------- 
-|-----2------0-------------0----------------2--------------3----------------- 
-|--2--0------2-------------x----------------2--------------3----------------- 
-|--0---------3-------------2----------------0--------------1----------------- 
-|---------------------------------------------------------------------------- 
 
   today.    Holding on, the light of night, on my knees to rise and fix my    

 
-|--3-------3--------------------|-|------------------------------------------ 
-|--1-------0---------3----------|-|------------------------------------------ 
-|--0-------0---------3----------|-|------------------------------------------ 
-|--2-------x---------3----------|-|------------------------------------------ 
-|--3-------2---------1----------|-|------------------------------------------ 
-|-------------------------------|-|------------------------------------------ 
 
    broken soul       again...                                       

 
-|-----7---5----3----5------7----5----3----5-----7----5----3----5------------- 
-|-----5---3----1----3------5----3----1----3-----5----3----1----3------------- 
-|-----4---2----0----2------4----2----0----2-----4----2----0----2------------- 
-|-----0---0----0----0------0----0----0----0-----0----0----0----0------------- 
-|---------------------------------------------------------------------------- 
-|---------------------------------------------------------------------------- 
 
   G1                                                                            

 
-|-----7---5----3----5------7----5----3----5-----7----5----3----5------------- 
-|-----5---3----1----3------5----3----1----3-----5----3----1----3------------- 
-|-----4---2----0----2------4----2----0----2-----4----2----0----2------------- 
-|-----0---0----0----0------0----0----0----0-----0----0----0----0------------- 
-|---------------------------------------------------------------------------- 
-|---------------------------------------------------------------------------- 
 
   G1                                                                     2x   

 
-|---------------------------------------------------------------------------- 
-|---------------------------------------------------------------------------- 
-|-------2----------------------------------------------11-11/12-12/14-14----- 
-|-------0-----------------------------------------------x--x--x--x--x--x----- 
-|-------------------------------------------------------9--9/10-10/12-12----- 
-|---------------------------------------------------------------------------- 
   G2                                                                                             2x 
 
-|----------------------2---------------------2------------------------------- 
-|-------------1--------3-------------1-------3--------------------1---------- 
-|----2--------0--------2----2--------0-------2------------2-------0---------- 
-|----3--------2--------0----3--------2-------0------------3-------2---------- 
-|----3--------3-------------3--------3--------------------3-------3---------- 
-|----1----------------------1-----------------------------1------------------ 
 
  G1                                                                           

 
-|----------------------------------------------15---------------------------- 
-|----15b17r15-13------------15b17r15-13------------------15b17r15-13--------- 
-|----------------14-12------------------14-12------------------------14-12--- 
-|----------------------12-------------------------12------------------------- 
-|---------------------------------------------------------------------------- 
-|---------------------------------------------------------------------------- 
 
  G2 

 
-|---2-----------------------2------------------------------2----------------- 
-|---3---------------1-------3-----------------------1------3----------------- 
-|---2-----2---------0-------2----------------2------0------2----------------- 
-|---0-----3---------2-------0----------------3------2------0----------------- 
-|---------3---------3------------------------3------3------------------------ 
-|---------1----------------------------------1------------------------------- 
 
  G1                                   Let me run into the rain                

 
-|---------------------------15----------------------------------------------- 
-|---------15b17r15-13-------------------------------------------------------- 
-|---------------------14-12-------------------------------------------------- 
-|--12--------------------------12-------------------------------------------- 
-|---------------------------------------------------------------------------- 
-|---------------------------------------------------------------------------- 
 
  G2 

 
-|-------------------------2-------------------------------2------------------ 
-|------------1-----1------3------------------1------1-----3------------------ 
-|------------2-----0------2------------------2------0-----2------------------ 
-|------------3-----2------0------------------3------2-----0------------------ 
-|------------3-----3-------------------------3------3------------------------ 
-|------------1-------------------------------1------------------------------- 
 
  G1 To be a human light again         Let me run into the rain                

 
-|---------------------------2------------------------------------------------ 
-|--------------1------1-----3------------------------------------------------ 
-|--------------2------0-----2----------0---0----------2--0--------2----0----- 
-|--------------3------2-----0----------2---0-----2----3--2--------3----2----- 
-|--------------3------3----------------3---2-----0----------3---------------- 
-|---------------------------------------------------------------------------- 
 
  G1 To shine a human light today     Life comes from within your heart and    

 
-|--------------------------------------------------------2------------------- 
-|-------3------------------------------------------------3------------------- 
-|-------2----------0----0---------2---0------2----0------2-----------0------- 
-|-------0----------2----0----2----3---2------3----2------0-----------2------- 
-|---3--------------3----2----0-----------3------------3--------------3------- 
-|---------------------------------------------------------------------------- 
 
 G1 desire     Ooh life comes from within my heart and desire    Ooh life      

 
-|---------------------------------------2------2----------------------------- 
-|---------------------------------------3------3----------------------------- 
-|---0---------2---0-------2-----0-------2------2----0------0----------------- 
-|---0-----2---3---2-------3-----2-------0------0----2------0----------------- 
-|---2-----0----------3--------------3---------------3------2----------------- 
-|---------------------------------------------------------------------------- 
 
 G1 comes from within your heart and desire                                    

 
-|---------------------------------------10---------10------10---------------- 
-|---------------------------------------13b15------13b15-------13-10--------- 
-|---------------------------------------------------------------------------- 
-|---------------------------------------------------------------------------- 
-|---------------------------------------------------------------------------- 
-|---------------------------------------------------------------------------- 
 
  G2 

 
-|-----------------------------------2---------------------------------------- 
-|-----------------------------------3---------------------------------------- 
-|---------------2------0------------2-------------2------0-------0----------- 
-|--2------------3------2------------0-------------3------2-------2----------- 
-|--0-------------------------------------------------------------3----------- 
-|---------------------------------------------------------------------------- 
 
  G1                                                                           

 
-|---------------------------------------------------------------------------- 
-|---------------------------------------------------------------------------- 
-|-12b13r12-10---12b13r12-10-12-10----------10--10---------------------------- 
-|---------------------------------12-10h12--------12-12--------12h14p12------ 
-|--------------------------------------------------------12h14--------------- 
-|---------------------------------------------------------------------------- 
 
  G2 

 
-|------------2----------------------------------------------------2---------- 
-|------------3----------------------------------------------------3---------- 
-|------------2------0----0---------2---0------------2------0------2---------- 
-|------------0------2----0---2-----3---2------------3------2------0---------- 
-|-------------------3----2---0-------------3-------------------3------------- 
-|---------------------------------------------------------------------------- 
 
  G1                                                                           

 
-|---------------------------------------------------10------10-----10-------- 
-|---------------------------------------------------13b15---13b15-----13p10-- 
-|-12p11p9-11-9v----14b16-14-12-11---14-12-11--------------------------------- 
-|--------------------------------------------12-10--------------------------- 
-|---------------------------------------------------------------------------- 
-|---------------------------------------------------------------------------- 
 
  G2                Oooh             Oooh 

 
-|---------------------------------------------------------------------------- 
-|---------------------------------------------------------------------------- 
-|------------------------0-----0-----------------2---0----------------------- 
-|------------------------2-----0----2------------3---2----------------------- 
-|------------------------3-----2----0----------------------3----------------- 
-|---------------------------------------------------------------------------- 
 
  G1                                                                           

 
-|-----------------------15b16--13-----------------10----10-----10------------ 
-|----10---------------------------15-15p13-15-13--13b15-13b15-----13p10------ 
-|-12-----12p10----10----------------------------------------------------12--- 
-|--------------12------------------------------------------------------------ 
-|---------------------------------------------------------------------------- 
-|---------------------------------------------------------------------------- 
 
  G2                      Yeahhhh                             Yeahhh 

 
-|------------------------------------------------10-----10------------------- 
-|--------------------15-------15-----------------13b15-----13p10----10------- 
-|-14-12---------------------------------------0------------------12----12-10- 
-|-------14-12--14b15----14b15----14b15r14p12--------------------------------- 
-|---------------------------------------------------------------------------- 
-|---------------------------------------------------------------------------- 
 
  G2 Running    straight! 

 
-|-----------------2---------------------------------------------------------- 
-|-----------------3---------------------------------------------------------- 
-|---2----0--------2-------------------------------0------0-------------2----- 
-|---3----2---2----0-------------------------------2------0-----2-------3----- 
-|------------3------------------------------------3------2-----0------------- 
-|---------------------------------------------------------------------------- 
 
  G1                                                                           

 
-|---------------------------------------------------------------------------- 
-|-------10------------------------------------------------------------------- 
-|----10----12v-10----------------------10-12b14r12p10------------------------ 
-|-12--------------12-------10-10-10h12----------------12vv------------------- 
-|--------------------10h12--------------------------------------------------- 
-|---------------------------------------------------------------------------- 
 
  G2 

 
-|-----------------------------------------------------2---------------------- 
-|-----------------------------------------------------3---------------------- 
-|----0----------------2----------0--------------------2---------------------- 
-|----2----------------3----------2-------2------------0---------------------- 
-|-----------3----------------------------3----------------------------------- 
-|---------------------------------------------------------------------------- 
 
  G2 

 
-|---17-------20-------20--------20-20----------22--22----20-20-------20------ 
-|------20-------20-------20-----------20----22--------22-------20-------20--- 
-|---------19-------22-------22-----------19-----------------------19--------- 
-|---------------------------------------------------------------------------- 
-|---------------------------------------------------------------------------- 
-|---------------------------------------------------------------------------- 
 
   fade in                                                                     

 
-|--------22----20----------------17-------17-------17----------20-22----20--- 
-|----20-----22----20----22-20-------20-------20-------20----20--------------- 
-|-19-----------------19-------19-------19-------19-------19----------19------ 
-|---------------------------------------------------------------------------- 
-|---------------------------------------------------------------------------- 
-|---------------------------------------------------------------------------- 
 
                                                                               

 
-|-------20-------------------20-22-------20--------20-22----------20-22-20--- 
-|-20-------20----20-20----20----------20----20--20-------20----20------------ 
-|----19-------19-------19----------19-----------------------19--------------- 
-|---------------------------------------------------------------------------- 
-|---------------------------------------------------------------------------- 
-|---------------------------------------------------------------------------- 
 
                                                                               

 
-|-------20----------------------20-22---------------------------------------- 
-|-20-------20-19-20----20----20---------------------------------------------- 
-|----19-------------19----19------------------------------------------------- 
-|---------------------------------------------------------------------------- 
-|---------------------------------------------------------------------------- 
-|---------------------------------------------------------------------------- 
 
                           fade out 
  

cifra enviadasem correções
enviado porenviada por:terr_schmitz
top 5 | pearl jam
top rock grunge
Outras músicas do artista letras do(a) Pearl Jam
Top cifras »Top artistas »
Petaxxon Comunicação Online
Cifras.com.br - Melhor e mais completo site de cifras e tablaturas do Brasil
Mais de 1 milhão de acordes de músicas cadastradas desde 2003
As informações contidas no nosso site são colaborações de seus usuários e podem conter erros, sendo assim, não nos responsabilizamos sobre nenhuma destas.
close
menos
mais
close
Cor dos acordes:

Cor da letra:

 

save
close
close
 
redimensionar