Cifras e Tablaturas
Perota Chingo
Cifras Cancelar Versão de Impressão

Perota Chingo - Piel

Tom: A

  			
A5                                        G5  A5 
       Respiro, suelto del hilo y viene clareandome 
                                         G5 
       Reposan secas las hojas llegan flotando 

E|-------------------------------------------------| 
B|------------6-6-x-6-6-x------------------5-5-x-5-| 
G|------------7-7-x-7-7-x------------------5-5-x-5-| 
D|------------7-7-x-7-7-x------------------5-5-x-4-| 
A|-------6-5--5-5-x-5-5-x---5-6-5----------------5-| 
E|---5-8------------------8-------8-5-8-5--5-5-x---| 

E|--------------------------------|| 
B|----------8-8-x-8---7-----------|| 
G|----------8-8-x-8---7-----------|| 
D|--------7-7-7-x-7-6-------------|| 
A|--------8-8-8-x-8-7---0---------|| 
E|--5-8-6-----------------8-5-8-5-|| 

       Y casi no estás, el agua te vuelve tibio 
       Así te encuentro y no, yo prefiero tu piel 

|e|-------------------------------------------------| 
|B|------------6-6-x-6-6-x------------------5-5-x-5-| 
|G|------------7-7-x-7-7-x------------------5-5-x-5-| 
|D|------------7-7-x-7-7-x------------------5-5-x-4-| 
|A|-------6-5--5-5-x-5-5-x---5-6-5----------------5-| 
|E|---5-8------------------8-------8-5-8-5--5-5-x---| 

E|------------------------------| 
B|-----------8-8-x-8---7--------| 
G|-----------8-8-x-8---7--------| 
D|---------7-7-7-x-7-6----------| 
A|------6--8-8-8-x-8-7---0------| 
E|--5-8-------------------8-5-8-| 
       
       Si te vas, tan frío se pone el río 
       Vuelvo al intento y no, yo prefiero tu piel, no! 
       Yo prefiero tu piel no! 
       Yo prefiero tu 

E|--------------------------------7-| 
B|------5------5-----5-----5------5-| 
G|------5------5-----5-----5------5-| 
D|----5------4-----3-----2--------5-| 
A|---------0-----0-----0------------| 
E|--5-------------------------------| 
    	
fixar
fixar inscrever-se

enviado porenviado por: jov-correa
cifra enviadaCorrigida por: sem correções
logo top cifrasComente
ico música do artistaMúsicas deste artista
ico curtiuCurtiu?
ico destaqueDestaque
Petaxxon Comunicação Online

Cifras.com.br - Melhor e mais completo site de cifras e tablaturas do Brasil Mais de 1 milhão de acordes de músicas cadastradas desde 2003
As informações contidas no nosso site são colaborações de seus usuários e podem conter erros, sendo assim, não nos responsabilizamos sobre nenhuma destas.

close
menos
mais
close
Cor dos acordes:

Cor da letra:

close
Alinhar acordes a direita Alinhar acordes a esquerda Alinhar acordes em baixo Alinhar acordes no topo
close
  Mostrar todos os acordes Esconder acordes muito fáceis Esconder acordes fáceis Esconder acordes intermediários
redimensionar
glossário