Cifras e Tablaturas
Peter Hammill

Peter Hammill

Sharply Unclear

Cifras Cancelar Versão de Impressão
cifras

Peter Hammill - Sharply Unclear

fixar na tela  
Exibindo: vídeo-aula ver clipes redimensionar
  
Dm 
E|---------1--------|---------1--------|---------1--------|---------1--------| 
B|------3-----3-----|------3-----3-----|------3-----3-----|------3-----3-----| 
G|---2-----------2--|---2-----------2--|---2-----------2--|---2-----------2--| 
D|0-----------------|------------------|0-----------------|------------------| 
A|------------------|------------------|------------------|------------------| 
E|------------------|------------------|------------------|------------------| 

    Dm                                                Bbsus2 
E|-------------1-----------|------------1-----------|------------------------| 
B|---------3-------3-------|--------3-------3-------|------------1-----------| 
G|-----2---------------2---|----2---------------2---|--------3-------3-------| 
D|-0-----------------------|------------------------|----3---------------3---| 
A|-------------------------|------------------------|1-----------------------| 
E|-------------------------|------------------------|------------------------| 
  
               C           Dm 
E|------------------------|------------1-----------|------------1-----------| 
B|------------------------|--------3-------3-------|--------3-------3-------| 
G|--------3-----------0---|----2---------------2---|----2---------------2---| 
D|----3-----------2-------|0-----------------------|0-----------------------| 
A|1-----------3-----------|------------------------|------------------------| 
E|------------------------|------------------------|------------------------| 
  
   Bbsus2                               Am 
E|-------------------------|------------------------| 
B|-------------1-----------|------------------------| 
G|---------3-------3-------|--------3-----------2---| 
D|-----3---------------3---|----3-----------2-------| 
A|-1-----------------------|1-----------0-----------| 
E|-------------------------|------------------------| 

Refrão 

   Gsus2                                 C 
E|------------------|------------------|------------------------| 
B|------------------|------------------|---------1--------------| 
G|------0--2--0-----|------0--2--0-----|------0-----0-----------| 
D|---0-----------0--|---0-----------0--|---2-----------2-----3--| 
A|------------------|------------------|3-----------------3-----| 
E|3-----------------|3-----------------|------------------------| 
   
     Gsus2                                 C 
E|------------------|------------------|------------------|------------------| 
B|------------------|------------------|---------1--------|------------------| 
G|------0--2--0-----|------0--2--0-----|------0-----0-----|------------------| 
D|---0-----------0--|---0-----------0--|---2-----------2--|------------------| 
A|------------------|------------------|3-----------------|3-----------------| 
E|3-----------------|3-----------------|------------------|------------------| 

Final 

   Dm 
E|---------1--------|---------1--------|---------1--------|---------1--------| 
B|------3-----3-----|------3-----3-----|------3-----3-----|------3-----3-----| 
G|---2-----------2--|---2-----------2--|---2-----------2--|---2-----------2--| 
D|0-----------------|------------------|0-----------------|------------------| 
A|------------------|------------------|------------------|------------------| 
E|------------------|------------------|------------------|------------------| 
  

cifra enviadasem correções
enviado porenviada por:jov-correa
top 5 | peter hammill
top rock'n roll
Outras músicas do artista letras do(a) Peter Hammill
Top cifras »Top artistas »
Petaxxon Comunicação Online
Cifras.com.br - Melhor e mais completo site de cifras e tablaturas do Brasil
Mais de 1 milhão de acordes de músicas cadastradas desde 2003
As informações contidas no nosso site são colaborações de seus usuários e podem conter erros, sendo assim, não nos responsabilizamos sobre nenhuma destas.
close
menos
mais
close
Cor dos acordes:

Cor da letra:

 

save
close
close
 
redimensionar