Cifras e Tablaturas
Phemiec

Phemiec

Sylph Set On Fire

Cifras Cancelar Versão de Impressão
cifras

Phemiec - Sylph Set On Fire

fixar na tela  
Exibindo: vídeo-aula ver clipes redimensionar

Tom:

  
Intro 
e|-------------|-------------|-------------|---------| 
B|---0-----0---|---3-----3---|---0-----0---|---3-----| 
G|-1---1-1---1-|-4---4-4---4-|-1---1-1---1-|-4---4-4-| 
D|-------------|-------------|-------------|---------| 
A|-------------|-------------|-------------|---------| 
E|-0-----------|-3-----------|-0-----------|-3-------| 

verse 1 
e|-------------|-------------|-------------|---------|-------------|-------------|-------------|---------| 
B|---0-----0---|---3-----3---|---0-----0---|---3-----|---0-----0---|---3-----3---|---0-----0---|---3-----| 
G|-1---1-1---1-|-4---4-4---4-|-1---1-1---1-|-4---4-4-|-1---1-1---1-|-4---4-4---4-|-1---1-1---1-|-4---4-4-| 
D|-------------|-------------|-------------|---------|-------------|-------------|-------------|---------| 
A|-------------|-------------|-------------|---------|-------------|-------------|-------------|---------| 
E|-0-----------|-3-----------|-0-----------|-3-------|-0-----------|-3-----------|-0-----------|-3-------| 

e|-------|-------|-------------|-------|-------|-------------|-------|-------|-------------| 
B|---5---|---3---|---0-----0---|---5---|---3---|---0-----0---|---5---|---3---|---0-----0---| 
G|-6---6-|-4---4-|-1---1-1---1-|-6---6-|-4---4-|-1---1-1---1-|-6---6-|-4---4-|-1---1-1---1-| 
D|-------|-------|-------------|-------|-------|-------------|-------|-------|-------------| 
A|-------|-------|-------------|-------|-------|-------------|-------|-------|-------------| 
E|-5-----|-3-----|-0-----------|-5-----|-3-----|-0-----------|-5-----|-3-----|-0-----------| 

e|-------|-------|-------------|---------| 
B|---5---|---3---|---0-----0---|---0-----| 
G|-6---6-|-4---4-|-1---1-1---1-|-1---1-1-| 
D|-------|-------|-------------|---------| 
A|-------|-------|-------------|---------| 
E|-5-----|-3-----|-0-----------|---------| 

Bridge 1 
e|-x-x-x-x-x-x-|-x-x-x-x-x-x-|-x-x-x-x-x-x-|-x-x-x-x-x-x-| 
B|-x-x-x-x-x-x-|-x-x-x-x-x-x-|-x-x-x-x-x-x-|-x-x-x-x-x-x-| 
G|-1-1-1-1-1-1-|-4-4-4-4-4-4-|-1-1-1-1-1-1-|-4-4-4-4-4-4-| 
D|-2-2-2-2-2-2-|-5-5-5-5-5-5-|-2-2-2-2-2-2-|-5-5-5-5-5-5-| 
A|-2-2-2-2-2-2-|-5-5-5-5-5-5-|-2-2-2-2-2-2-|-5-5-5-5-5-5-| 
E|-0-0-0-0-0-0-|-3-3-3-3-3-3-|-0-0-0-0-0-0-|-3-3-3-3-3-3-| 

e|-x-x-x-x-x-x-|-x-x-x-x-x-x-|-x-x-x-x-x-x-|-x-x-x-x-x-x-|-x-x-x-x-| 
B|-x-x-x-x-x-x-|-x-x-x-x-x-x-|-x-x-x-x-x-x-|-x-x-x-x-x-x-|-x-x-x-x-| 
G|-6-6-6-4-4-4-|-1-1-1-1-1-1-|-6-6-6-4-4-4-|-1-1-1-1-1-1-|-1-1-1-1-| 
D|-7-7-7-5-5-5-|-2-2-2-2-2-2-|-7-7-7-5-5-5-|-2-2-2-2-2-2-|-2-2-2-2-| 
A|-7-7-7-5-5-5-|-2-2-2-2-2-2-|-7-7-7-5-5-5-|-2-2-2-2-2-2-|-2-2-2-2-| 
E|-5-5-5-3-3-3-|-0-0-0-0-0-0-|-5-5-5-3-3-3-|-0-0-0-0-0-0-|-0-0-0-0-| 

Intro 2 
e|-------------|-------------|-------------|---------| 
B|---0-----0---|---3-----3---|---0-----0---|---3-----| 
G|-1---1-1---1-|-4---4-4---4-|-1---1-1---1-|-4---4-4-| 
D|-------------|-------------|-------------|---------| 
A|-------------|-------------|-------------|---------| 
E|-0-----------|-3-----------|-0-----------|-3-------| 

verse 2 
e|-------------|-------------|-------------|---------|-------------|-------------|-------------|---------| 
B|---0-----0---|---3-----3---|---0-----0---|---3-----|---0-----0---|---3-----3---|---0-----0---|---3-----| 
G|-1---1-1---1-|-4---4-4---4-|-1---1-1---1-|-4---4-4-|-1---1-1---1-|-4---4-4---4-|-1---1-1---1-|-4---4-4-| 
D|-------------|-------------|-------------|---------|-------------|-------------|-------------|---------| 
A|-------------|-------------|-------------|---------|-------------|-------------|-------------|---------| 
E|-0-----------|-3-----------|-0-----------|-3-------|-0-----------|-3-----------|-0-----------|-3-------| 

e|-------|-------|-------------|-------|-------|-------------|-------|-------|-------------| 
B|---5---|---3---|---0-----0---|---5---|---3---|---0-----0---|---5---|---3---|---0-----0---| 
G|-6---6-|-4---4-|-1---1-1---1-|-6---6-|-4---4-|-1---1-1---1-|-6---6-|-4---4-|-1---1-1---1-| 
D|-------|-------|-------------|-------|-------|-------------|-------|-------|-------------| 
A|-------|-------|-------------|-------|-------|-------------|-------|-------|-------------| 
E|-5-----|-3-----|-0-----------|-5-----|-3-----|-0-----------|-5-----|-3-----|-0-----------| 

e|-------|-------|-------------|---------| 
B|---5---|---3---|---0-----0---|---0-----| 
G|-6---6-|-4---4-|-1---1-1---1-|-1---1-1-| 
D|-------|-------|-------------|---------| 
A|-------|-------|-------------|---------| 
E|-5-----|-3-----|-0-----------|---------| 

Bridge 2  
(x : mute string) 
e|-x-x-x-x-x-x-|-x-x-x-x-x-x-|-x-x-x-x-x-x-|-x-x-x-x-x-x-| 
B|-x-x-x-x-x-x-|-x-x-x-x-x-x-|-x-x-x-x-x-x-|-x-x-x-x-x-x-| 
G|-1-1-1-1-1-1-|-4-4-4-4-4-4-|-1-1-1-1-1-1-|-4-4-4-4-4-4-| 
D|-2-2-2-2-2-2-|-5-5-5-5-5-5-|-2-2-2-2-2-2-|-5-5-5-5-5-5-| 
A|-2-2-2-2-2-2-|-5-5-5-5-5-5-|-2-2-2-2-2-2-|-5-5-5-5-5-5-| 
E|-0-0-0-0-0-0-|-3-3-3-3-3-3-|-0-0-0-0-0-0-|-3-3-3-3-3-3-| 

e|-x-x-x-x-x-x-|-x-x-x-x-x-x-|-x-x-x-x-x-x-|-x-x-x-x-x-x-|-x-x-x-x-| 
B|-x-x-x-x-x-x-|-x-x-x-x-x-x-|-x-x-x-x-x-x-|-x-x-x-x-x-x-|-x-x-x-x-| 
G|-6-6-6-4-4-4-|-1-1-1-1-1-1-|-7-7-7-5-5-5-|-1-1-1-1-1-1-|-1-1-1-1-| 
D|-7-7-7-5-5-5-|-2-2-2-2-2-2-|-8-8-8-6-6-6-|-2-2-2-2-2-2-|-2-2-2-2-| 
A|-7-7-7-5-5-5-|-2-2-2-2-2-2-|-8-8-8-6-6-6-|-2-2-2-2-2-2-|-2-2-2-2-| 
E|-5-5-5-3-3-3-|-0-0-0-0-0-0-|-6-6-6-4-4-4-|-0-0-0-0-0-0-|-0-0-0-0-| 

Outro 
e|-------------|-------------|-------------|-----------|-------|-------|-------------|-------|-------|---| 
B|---0-----0---|---3-----3---|---0-----0---|---3---3---|---5---|---3---|---0-----0---|---5---|---3---|---| 
G|-1---1-1---1-|-4---4-4---4-|-1---1-1---1-|-4---4---4-|-6---6-|-4---4-|-1---1-1---1-|-6---6-|-4---4-|-4-| 
D|-------------|-------------|-------------|-----------|-------|-------|-------------|-------|-------|---| 
A|-------------|-------------|-------------|-----------|-------|-------|-------------|-------|-------|---| 
E|-0-----------|-3-----------|-0-----------|-3---------|-5-----|-3-----|-0-----------|-5-----|-3-----|-0-| 


*********************************** 

| x   Dead note 

*********************************** 
  

top 5 | phemiec
top rock'n roll
Outras músicas do artista letras do(a) Phemiec
3.
Mary
Top cifras »Top artistas »
Petaxxon Comunicação Online
Cifras.com.br - Melhor e mais completo site de cifras e tablaturas do Brasil
Mais de 1 milhão de acordes de músicas cadastradas desde 2003
As informações contidas no nosso site são colaborações de seus usuários e podem conter erros, sendo assim, não nos responsabilizamos sobre nenhuma destas.
close
menos
mais
close
Cor dos acordes:

Cor da letra:

 

save
close
close
 
redimensionar