Cifras e Tablaturas
Phill Veras

Phill Veras

O Piano

Cifras Cancelar Versão de Impressão
cifras

Phill Veras - O Piano

fixar na tela  
Exibindo: vídeo-aula ver clipes redimensionar

Tom:

  
E|----------7----4---------------7---4----------- 
B|---5------5----5----7---4------4---4----------- 
G|---4----------------4---4---------------------- 
D|---6------------------------------------------- 
A|---4------------------------------------------- 
E|------------------------5---5------------------ 


E|----------0------------------------------------ 
B|------0------0---1-----------1----------------- 
G|------1----------2-------2--------------------- 
D|------2----------1---1------------------------- 
A|------2----------0----------------------------- 
E|---0------------------------------------------- 



Parte 1: 10x 



E|------------4-------------4-------------------- 
B|---5--------5-------4-----4-------------------- 
G|---4----------------4-------------------------- 
D|---6----------------4-------------------------- 
A|---4-----4-----4------------------------------- 
E|--------------------5--5-----5----------------- 


E|----------0------------------------------------ 
B|------0------0---1-----------1----------------- 
G|------1----------2-------2--------------------- 
D|------2----------1---1------------------------- 
A|------2----------0----------------------------- 
E|---0------------------------------------------- 



Refrão: 2x  



E|----------------------------------------------- 
B|---9--x--9--9--x-----7--x--7--7--x------------- 
G|---9--x--9--9--x-----8--x--8--8--x------------- 
D|---7--x--7--7--x-----7--x--7--7--x------------- 
A|---9--x--9--9--x------------------------------- 
E|---------------------7--x--7--7--x------------- 


E|----------------------------------------------- 
B|---9---------9---9---------9------------------- 
G|---9------9------8------8---------------------- 
D|---9---9---------9---9------------------------- 
A|---7-------------7----------------------------- 
E|----------------------------------------------- 


E|----------------------------------------------- 
B|---9---------9---9---------9------------------- 
G|---7------7------6------6---------------------- 
D|---9---9---------9---9------------------------- 
A|---8-------------8----------------------------- 
E|----------------------------------------------- 


E|----------------------------------------------- 
B|---9--x--9--9--x-----7--x--7--7--x------------- 
G|---9--x--9--9--x-----8--x--8--8--x------------- 
D|---7--x--7--7--x-----7--x--7--7--x------------- 
A|---9--x--9--9--x------------------------------- 
E|---------------------7--x--7--7--x------------- 


E|----------------------------------------------- 
B|-------2---2-----2-----2-----2----------------- 
G|-------1---1-----1-----1-----1----------------- 
D|-------2---2-----2-----2-----2----------------- 
A|---0---1---1---1-----1-----1------------------- 
E|----------------------------------------------- 


E|--------------2-------------------------------- 
B|---4---4----------4-------4-------------------- 
G|---4---4--------------4------------------------ 
D|---3---3---3----------------------------------- 
A|----------------------------------------------- 
E|----------------------------------------------- 



Parte 2: 4x 



E|----------7----4---------------7---4----------- 
B|---5------5----5----7---4------4---4----------- 
G|---4----------------4---4---------------------- 
D|---6------------------------------------------- 
A|---4------------------------------------------- 
E|------------------------5---5------------------ 


E|----------0------------------------------------ 
B|------0------0---1-----------1----------------- 
G|------1----------2-------2--------------------- 
D|------2----------1---1------------------------- 
A|------2----------0----------------------------- 
E|---0------------------------------------------- 



Parte 3: 10x 



E|------------4-------------4-------------------- 
B|---5--------5-------4-----4-------------------- 
G|---4----------------4-------------------------- 
D|---6----------------4-------------------------- 
A|---4-----4-----4------------------------------- 
E|--------------------5--5-----5----------------- 


E|----------0------------------------------------ 
B|------0------0---1-----------1----------------- 
G|------1----------2-------2--------------------- 
D|------2----------1---1------------------------- 
A|------2----------0----------------------------- 
E|---0------------------------------------------- 



Refrão: 



E|----------------------------------------------- 
B|---9--x--9--9--x-----7--x--7--7--x------------- 
G|---9--x--9--9--x-----8--x--8--8--x------------- 
D|---7--x--7--7--x-----7--x--7--7--x------------- 
A|---9--x--9--9--x------------------------------- 
E|---------------------7--x--7--7--x------------- 


E|----------------------------------------------- 
B|---9---------9---9---------9------------------- 
G|---9------9------8------8---------------------- 
D|---9---9---------9---9------------------------- 
A|---7-------------7----------------------------- 
E|----------------------------------------------- 


E|----------------------------------------------- 
B|---9---------9---9---------9------------------- 
G|---7------7------6------6---------------------- 
D|---9---9---------9---9------------------------- 
A|---8-------------8----------------------------- 
E|----------------------------------------------- 


E|----------------------------------------------- 
B|---9--x--9--9--x-----7--x--7--7--x------------- 
G|---9--x--9--9--x-----8--x--8--8--x------------- 
D|---7--x--7--7--x-----7--x--7--7--x------------- 
A|---9--x--9--9--x------------------------------- 
E|---------------------7--x--7--7--x------------- 



Repete esse trecho 3x: 



E|----------------------------------------------- 
B|-------2---2-----2-----2-----2----------------- 
G|-------1---1-----1-----1-----1----------------- 
D|-------2---2-----2-----2-----2----------------- 
A|---0---1---1---1-----1-----1------------------- 
E|----------------------------------------------- 


E|--------------2-------------------------------- 
B|---4---4----------4-------4-------------------- 
G|---4---4--------------4------------------------ 
D|---3---3---3----------------------------------- 
A|----------------------------------------------- 
E|----------------------------------------------- 



Final: 4x 




E|----------7----4---------------7---4----------- 
B|---5------5----5----7---4------4---4----------- 
G|---4----------------4---4---------------------- 
D|---6------------------------------------------- 
A|---4------------------------------------------- 
E|------------------------5---5------------------ 


E|----------0------------------------------------ 
B|------0------0---1-----------1----------------- 
G|------1----------2-------2--------------------- 
D|------2----------1---1------------------------- 
A|------2----------0----------------------------- 
E|---0------------------------------------------- 
  

top 5 | phill veras
top brasil
Outras músicas do artista letras do(a) Phill Veras
Top cifras »Top artistas »
Petaxxon Comunicação Online
Cifras.com.br - Melhor e mais completo site de cifras e tablaturas do Brasil
Mais de 1 milhão de acordes de músicas cadastradas desde 2003
As informações contidas no nosso site são colaborações de seus usuários e podem conter erros, sendo assim, não nos responsabilizamos sobre nenhuma destas.
close
menos
mais
close
Cor dos acordes:

Cor da letra:

 

save
close
close
 
redimensionar