Cifras e Tablaturas
Piebald

Piebald

Chris Rodgers

Cifras Cancelar Versão de Impressão
cifras

Piebald - Chris Rodgers

fixar na tela  
Exibindo: vídeo-aula ver clipes redimensionar
  
TUNING: E, A, D, F, A, D 

d|----------| 
A|-7--9--10-| 
F|----------| 
D|----------| x18 
A|-7--7--7--| 
E|----------| 

d|-----------------------------------| 
A|-9-9-9-9-9-10-10-10-10-10-10-\-9-9-| 
F|-----------------------------------| 
D|-9-9-9-9-9-10-10-10-10-10-10-\-9-9-| x16 
A|-----------------------------------| 
E|-0-0-0-0-0-0--0--0--0--0--0----0-0-| 

d|---------------------------------------------------------------------------| 
A|---------------------------------------------------------------------------| 
F|-6-6-7-7-6-7-7-6-6-7-7-6-7-7-6-6-7-7-6-7-7-6-6-6-6-7-7-7-7-6-6-6-6-7-7-7-7-| 
D|---------------------------------------------------------------------------| x4 
A|---------------3-3-3-3-3-3-3-5-5-5-5-5-5-5---------------------------------| 
E|-7-7-7-7-7-7-7-----------------------------3-3-3-3-3-3-3-3-3-3-3-3-3-3-3-3-| 

d|------------------------------------------------------------------------------| 
A|------------------------------------------------------------------------------| 
F|-6-6-6-6-7-7-7-7-6-6-6-6-7-7-7-7-6-6-6-6-7-7-7-7-6-6-6-6-7-7-7-7-7------------| 
D|-------------------------------------------------------------------(let ring)-| 
A|------------------------------------------------------------------------------| 
E|-3-3-3-3-3-3-3-3-3-3-3-3-3-3-3-3-3-3-3-3-3-3-3-3-3-3-3-3-3-3-3-3-3------------| 

    d|--------------------------------------------------------------------------------| 
    A|------10------10------10------10------10--------7------7------7------7------7---| 
GTR F|----6----6-------6-------6-------6-------6----6---6------6------6------6------6-| 
 1  D|-10--------10------10------10------10------10-------10-----10-----10-----10-----| x2 
    A|--------------------------------------------------------------------------------| 
    E|--------------------------------------------------------------------------------| 

    d|-------------------------------------------9------------------------------------| 
    A|-------------------------------------------10-(Let ring)------------------------| 
GTR F|-7-(Let ring)------------------------------7------------------------------------| 
 2  D|--------------------------------------------------------------------------------| x2 
    A|--------------------------------------------------------------------------------| 
    E|--------------------------------------------------------------------------------| 

    d|--------------------------------------------------------------------------------| 
    A|------10------10------10------10------10--------7------7------7------7------7---| 
GTR F|----6----6-------6-------6-------6-------6----6---6------6------6------6------6-| 
 1  D|-10--------10------10------10------10------10-------10-----10-----10-----10-----| x3 
    A|--------------------------------------------------------------------------------| 
    E|--------------------------------------------------------------------------------| 

    d|-------------------------------------------------------------| 
    A|-------------------------------------------------------------| 
GTR F|-------------------------------------------------------------| 
 2  D|-------------------------------------------------------------| x3 
    A|-5-5-5-5-5-5-5-5-5-5-5-5-5-5-5-5-2-2-2-2-2-2-2-2-2-2-2-2-2-2-| 
    E|-3-3-3-3-3-3-3-3-3-3-3-3-3-3-3-3-0-0-0-0-0-0-0-0-0-0-0-0-0-0-| 
       P M P M P M P M P M P M P M P M P M P M P M P M P M P M P M 

    d|--------------------------------------------------------------------------------| 
    A|------10------10------10------10------10--------7------7------7------7------7---| 
GTR F|----6----6-------6-------6-------6-------6----6---6------6------6------6------6-| 
 1  D|-10--------10------10------10------10------10-------10-----10-----10-----10-----| x1 
    A|--------------------------------------------------------------------------------| 
    E|--------------------------------------------------------------------------------| 

    d|-------------------------------------------------------------| 
    A|-------------------------------------------------------------| 
GTR F|-------------------------------------------------------------| 
 2  D|---------------------------------2-2-2-2-2-2-2-2-2-2-2-2-2-2-| x1 
    A|-5-5-5-5-5-5-5-5-5-5-5-5-5-5-5-5-2-2-2-2-2-2-2-2-2-2-2-2-2-2-| 
    E|-3-3-3-3-3-3-3-3-3-3-3-3-3-3-3-3-0-0-0-0-0-0-0-0-0-0-0-0-0-0-| 
       P M P M P M P M P M P M P M P M  

d|---------- 1,3,5,7 --------------------|---- 2,4,6 ----| 
A|-3-----3-------------------3-----3-----|---------------| 
F|-------------------2-2-2-2-------------|-------7--6--7-| 
D|-4-----4-----2--2----------4-----4-----|-2--2----------| 
A|-3-3-3-3-3-3-2--2--3-3-3-3-3-3-3-3-3-3-|-2--2--7--7--7-| 
E|-------------0--0----------------------|-0--0----------| 

d|-----------------------------------------------------------------| 
A|---------3-3-2-2---------3-3-2-2---------3-3-2-2---------3-3-2-2-| 
F|-----------------------------------------------------------------| 
D|-2-2-2-2---------5-5-5-5---------5-5-5-5---------4-4-4-4---------| x2 
A|-2-2-2-2---------5-5-5-5---------3-3-3-3---------2-2-2-2---------| 
E|-0-0-0-0---------3-3-3-3-----------------------------------------| 

d|-------------------------------------------------------------------------| 
A|-------------------------------------------------------------------------| 
F|-------------------------------------------------------------------------| 
D|-2--2-2-2-4--4-4-4-5--5-5-5-0--0-0-0-2--2-2-2-4--4-4-4-5--5-5-5-7--7-7-7-| x2 
A|-------------------------------------------------------------------------| 
E|-------------------------------------------------------------------------| 

d|-------------------------7-7-7-7-7-10-10-\-9-| 
A|-2-2-222-2-2-222-2-2-222---------------------| 
F|---------------------------------------------| 
D|-2-2-222-4-4-444-5-5-555-7-7-7-7-7-7--7----7-| 1,3,5,7 
A|---------------------------------------------| 
E|---------------------------------------------| 

d|--------------------------------------10-10-\-9-| 
A|-2-2-222-9-9-999-10-10-101010-9-9-999-----------| 
F|------------------------------------------------| 
D|-2-2-222-9-9-999-9--9--9-9-9--7-7-777-7--7----7-| 2,4,6,8 
A|------------------------------------------------| 
E|------------------------------------------------| 
  

top 5 | piebald
top rock alternativo
Outras músicas do artista letras do(a) Piebald
Top cifras »Top artistas »
Petaxxon Comunicação Online
Cifras.com.br - Melhor e mais completo site de cifras e tablaturas do Brasil
Mais de 1 milhão de acordes de músicas cadastradas desde 2003
As informações contidas no nosso site são colaborações de seus usuários e podem conter erros, sendo assim, não nos responsabilizamos sobre nenhuma destas.
close
menos
mais
close
Cor dos acordes:

Cor da letra:

 

save
close
close
 
redimensionar