Cifras e Tablaturas
Piebald

Piebald

If Marcus Garvey Dies Then Marcus Garvey Lives

Cifras Cancelar Versão de Impressão
cifras

Piebald - If Marcus Garvey Dies Then Marcus Garvey Lives

fixar na tela  
Exibindo: vídeo-aula ver clipes redimensionar

Tom:

  
verse 1 
(0:00 - 0:23) 
E|-------------------------------------------------|-------------------------------------------------| 
B|-8-----8-----8-----8-----8-----8-----8-----8-----|-8-----8-----8-----8-----8-----8-----8-----8-----| 
G|-9-----9-----9-----9-----9-----9-----9-----9-----|-8-----8-----8-----8-----8-----8-----8-----8-----| 
D|-9-----9-----9-----9-----9-----9-----9-----9-----|-8-----8-----8-----8-----8-----8-----8-----8-----| 
A|-7-----7-----7-----7-----7-----7-----7-----7-----|-6-----6-----6-----6-----6-----6-----6-----6-----| 
E|-------------------------------------------------|-------------------------------------------------| 

E|-------------------------------------------------|-------------------------------------------------| 
B|-5-----5-----5-----5-----5-----5-----5-----5-----|-------------------------------------------------| 
G|-5-----5-----5-----5-----5-----5-----5-----5-----|-2--2--2--2--4--4--4--4--5--5--5--5--8--8--8--8--| 
D|-5-----5-----5-----5-----5-----5-----5-----5-----|-2--2--2--2--4--4--4--4--5--5--5--5--8--8--8--8--| 
A|-3-----3-----3-----3-----3-----3-----3-----3-----|-0--0--0--0--2--2--2--2--3--3--3--3--6--6--6--6--| 
E|-------------------------------------------------|-------------------------------------------------| 

E|-------------------------------------------------|-------------------------------------------------| 
B|-8-----8-----8-----8-----8-----8-----8-----8-----|-8-----8-----8-----8-----8-----8-----8-----8-----| 
G|-9-----9-----9-----9-----9-----9-----9-----9-----|-8-----8-----8-----8-----8-----8-----8-----8-----| 
D|-9-----9-----9-----9-----9-----9-----9-----9-----|-8-----8-----8-----8-----8-----8-----8-----8-----| 
A|-7-----7-----7-----7-----7-----7-----7-----7-----|-6-----6-----6-----6-----6-----6-----6-----6-----| 
E|-------------------------------------------------|-------------------------------------------------| 

E|-------------------------------------------------|-------------------------------------------------| 
B|-5-----5-----5-----5-----5-----5-----5-----5-----|-------------------------------------------------| 
G|-5-----5-----5-----5-----5-----5-----5-----5-----|-2--2--2--2--4--4--4--4--5--5--5--5--7--7--7--7--| 
D|-5-----5-----5-----5-----5-----5-----5-----5-----|-2--2--2--2--4--4--4--4--5--5--5--5--7--7--7--7--| 
A|-3-----3-----3-----3-----3-----3-----3-----3-----|-0--0--0--0--2--2--2--2--3--3--3--3--5--5--5--5--| 
E|-------------------------------------------------|-------------------------------------------------| 

Bridge 
(0:23 - 0:42) 
E|-------------------------------------------------|-------------------------------------------------| 
B|-------------------------------------------------|-------------------------------------------------| 
G|-5--5--5--5--7--7--7--7--9--9--9--9--11-11-11-11-|-------------------------------------------------| 
D|-5--5--5--5--7--7--7--7--9--9--9--9--11-11-11-11-|-------------------5-----------------------------| 
A|-3--3--3--3--5--5--5--5--7--7--7--7--9--9--9--9--|-------------------5-----------------------------| 
E|-------------------------------------------------|-x--x--x-----x-----3-----------------------------| 

E|-------------------------------8p7---------------|-------------------------------------------------| 
B|----------------------------------------8--------|-------------------------------------------------| 
G|-------------------5-----------------------------|-------------------------------------------------| 
D|-------------------5-----------------------------|-------------------4-----------------------------| 
A|-x--x--x-----x-----3-----------------------------|-------------------4-----------------------------| 
E|-------------------------------------------------|-x--x--x-----x-----2-----------------------------| 

E|-------------------------------------------------|-------------------------------8p7---------------| 
B|-0-----0-----0-----------------------------------|----------------------------------------8--------| 
G|-3-----0-----3-----------------------------------|-------------------5-----------------------------| 
D|-------------------------5-----------------------|-------------------5-----------------------------| 
A|-------------------------5-----------------------|-x--x--x-----x-----3-----------------------------| 
E|-------------------x--x--3-----------------------|-------------------------------------------------| 

verse 2 
(0:42 - 1:10) 
E|-------------------------------------------------|-------------------------------------------------| 
B|-------------------------------------------------|-------------------------------------------------| 
G|-------------------------------------------------|-------------------------------------------------| 
D|-------------------4-----------------------------|-5--------7--------8-----5--------7--------8-----| 
A|-------------------4-----------------------------|-5--------7--------8-----5--------7--------8-----| 
E|-x--x--x-----x-----2-----------------------------|-3--------5--------6-----3--------5--------6-----| 

E|-------------------------------------------------|-------------------------------------------------| 
B|-------------------------------------------------|-------------------------------------------------| 
G|-------------------------------------------------|-------------------------------------------------| 
D|-5--------7--------8-----5--------7--------8-----|-5--------7--------8-----5--------7--------8-----| 
A|-5--------7--------8-----5--------7--------8-----|-5--------7--------8-----5--------7--------8-----| 
E|-3--------5--------6-----3--------5--------6-----|-3--------5--------6-----3--------5--------6-----| 

E|-------------------------------------------------|-------------------------------------------------| 
B|-------------------------------------------------|-------------------------------------------------| 
G|-------------------------------------------------|-------------------------------------------------| 
D|-5--------7--------8-----5--------7--------8-----|-5--------7--------8-----5--------7--------8-----| 
A|-5--------7--------8-----5--------7--------8-----|-5--------7--------8-----5--------7--------8-----| 
E|-3--------5--------6-----3--------5--------6-----|-3--------5--------6-----3--------5--------6-----| 

E|-------------------------------------------------|-------------------------------------------------| 
B|-------------------------------------------------|-0--------------0--0--------------0--0-----------| 
G|-------------------------------------------------|-3--------------3--0--------------0--3-----------| 
D|-5--------7--------8-----5--------7--------8-----|-------------------------------------------------| 
A|-5--------7--------8-----5--------7--------8-----|-------------------------------------------------| 
E|-3--------5--------6-----3--------5--------6-----|-------------------------------------------------| 

E|-------------------------------------------------|-------------------------------------------------| 
B|-0--------------0--0--------------0--0-----------|-0--------------0--0--------------0--0-----------| 
G|-3--------------3--0--------------0--3-----------|-3--------------3--0--------------0--3-----------| 
D|-------------------------------------------------|-------------------------------------------------| 
A|-------------------------------------------------|-------------------------------------------------| 
E|-------------------------------------------------|-------------------------------------------------| 

verse 3 
(1:10 - 1:38) 
E|-------------------------------------------------|-------------------------------------------------| 
B|-0--------------0--0--------------0--0-----------|-8-----8-----8-----8-----8-----8-----8-----8-----| 
G|-3--------------3--0--------------0--3-----------|-9-----9-----9-----9-----9-----9-----9-----9-----| 
D|-------------------------------------------------|-9-----9-----9-----9-----9-----9-----9-----9-----| 
A|-------------------------------------------------|-7-----7-----7-----7-----7-----7-----7-----7-----| 
E|-------------------------------------------------|-------------------------------------------------| 

E|-------------------------------------------------|-------------------------------------------------| 
B|-8-----8-----8-----8-----8-----8-----8-----8-----|-5-----5-----5-----5-----5-----5-----5-----5-----| 
G|-8-----8-----8-----8-----8-----8-----8-----8-----|-5-----5-----5-----5-----5-----5-----5-----5-----| 
D|-8-----8-----8-----8-----8-----8-----8-----8-----|-5-----5-----5-----5-----5-----5-----5-----5-----| 
A|-6-----6-----6-----6-----6-----6-----6-----6-----|-3-----3-----3-----3-----3-----3-----3-----3-----| 
E|-------------------------------------------------|-------------------------------------------------| 

E|-------------------------------------------------|-------------------------------------------------| 
B|-------------------------------------------------|-8-----8-----8-----8-----8-----8-----8-----8-----| 
G|-2--2--2--2--4--4--4--4--5--5--5--5--8--8--8--8--|-9-----9-----9-----9-----9-----9-----9-----9-----| 
D|-2--2--2--2--4--4--4--4--5--5--5--5--8--8--8--8--|-9-----9-----9-----9-----9-----9-----9-----9-----| 
A|-0--0--0--0--2--2--2--2--3--3--3--3--6--6--6--6--|-7-----7-----7-----7-----7-----7-----7-----7-----| 
E|-------------------------------------------------|-------------------------------------------------| 

E|-------------------------------------------------|-------------------------------------------------| 
B|-8-----8-----8-----8-----8-----8-----8-----8-----|-5-----5-----5-----5-----5-----5-----5-----5-----| 
G|-8-----8-----8-----8-----8-----8-----8-----8-----|-5-----5-----5-----5-----5-----5-----5-----5-----| 
D|-8-----8-----8-----8-----8-----8-----8-----8-----|-5-----5-----5-----5-----5-----5-----5-----5-----| 
A|-6-----6-----6-----6-----6-----6-----6-----6-----|-3-----3-----3-----3-----3-----3-----3-----3-----| 
E|-------------------------------------------------|-------------------------------------------------| 

E|-------------------------------------------------|-------------------------------------------------| 
B|-------------------------------------------------|-------------------------------------------------| 
G|-2--2--2--2--4--4--4--4--5--5--5--5--7--7--7--7--|-5--5--5--5--7--7--7--7--9--9--9--9--11-11-11-11-| 
D|-2--2--2--2--4--4--4--4--5--5--5--5--7--7--7--7--|-5--5--5--5--7--7--7--7--9--9--9--9--11-11-11-11-| 
A|-0--0--0--0--2--2--2--2--3--3--3--3--5--5--5--5--|-3--3--3--3--5--5--5--5--7--7--7--7--9--9--9--9--| 
E|-------------------------------------------------|-------------------------------------------------| 

Chorus 
(1:38 - 2:57) 
E|-------------------------------------------------|-------------------------------------------------| 
B|-------------------------------------------------|-------------------------------------------------| 
G|-------------------------------------------------|-------------------------------------------------| 
D|-5-----------------------------------------------|-4-----4-----4-----4-----4-----4-----4-----4-----| 
A|-5-----------------------------------------------|-4-----4-----4-----4-----4-----4-----4-----4-----| 
E|-3-----------------------------------------------|-2-----2-----2-----2-----2-----2-----2-----2-----| 

E|-------------------------------------------------|-------------------------------------------------| 
B|-------------------------------------------------|-------------------------------------------------| 
G|-------------------------------------------------|-7-----7-----7-----7-----------------6-----------| 
D|-5-----5-----5-----5-----5-----5-----5-----5-----|-7-----7-----7-----7-----7-----------6-----------| 
A|-5-----5-----5-----5-----5-----5-----5-----5-----|-5-----5-----5-----5-----7-----------4-----------| 
E|-3-----3-----3-----3-----3-----3-----3-----3-----|-------------------------5-----------------------| 

E|-------------------------------------------------|-------------------------------------------------| 
B|-------------------------------------------------|-------------------------------------------------| 
G|-------------------------------------------------|-------------------------------------------------| 
D|-4-----4-----4-----4-----4-----4-----4-----4-----|-5-----5-----5-----5-----5-----5-----5-----5-----| 
A|-4-----4-----4-----4-----4-----4-----4-----4-----|-5-----5-----5-----5-----5-----5-----5-----5-----| 
E|-2-----2-----2-----2-----2-----2-----2-----2-----|-3-----3-----3-----3-----3-----3-----3-----3-----| 

E|-------------------------------------------------|-------------------------------------------------| 
B|-------------------------------------------------|-------------------------------------------------| 
G|-7-----7-----7-----7-----------------6-----------|-------------------------------------------------| 
D|-7-----7-----7-----7-----7-----------6-----------|-4-----------------------------------------------| 
A|-5-----5-----5-----5-----7-----------4-----------|-4-----------------------------------------------| 
E|-------------------------5-----------------------|-2-----------------------------------0-----2-----| 

E|-------------------------------------------------|-------------------------------------------------| 
B|-------------------------------------------------|-------------------------------------------------| 
G|-------------------------------------------------|-7-----------------------------------------------| 
D|-------------------------------------------------|-7-----------------------------------------------| 
A|-------------------------------------------------|-5-----------------------5-----------4-----------| 
E|-3-----------------------------------------------|-------------------------------------------------| 

E|-------------------------------------------------|-------------------------------------------------| 
B|-------------------------------------------------|-------------------------------------------------| 
G|-------------------------------------------------|-------------------------------------------------| 
D|-4-----------------------------------------------|-------------------------------------------------| 
A|-4-----------------------------------------------|-------------------------------------------------| 
E|-2-----------------------------------0-----2-----|-3-----------------------------------------------| 

E|-------------------------------------------------|-------------------------------------------------| 
B|-------------------------------------------------|-------------------------------------------------| 
G|-7-----------------------------------------------|-------------------------------------------------| 
D|-7-----------------------------------------------|-------------------------------------------------| 
A|-5-----------------------5-----------4-----------|-------------------------------------------------| 
E|-------------------------------------------------|-2-----------------------------------------------| 

E|-------------------------------------------------|-------------------------------------------------| 
B|-------------------------------------------------|-------------------------------------------------| 
G|-------------------------------------------------|-------------------------------------------------| 
D|-------------------------------------------------|-------------------------------------------------| 
A|-------------------------------------------------|-5-----------------------------------4-----------| 
E|-3-----------------------------------------------|-------------------------5-----------------------| 

E|-------------------------------------------------|-------------------------------------------------| 
B|-------------------------------------------------|-------------------------------------------------| 
G|-------------------------------------------------|-------------------------------------------------| 
D|-------------------------------------------------|-------------------------------------------------| 
A|-------------------------------------------------|-------------------------------------------------| 
E|-2-----------------------------------------------|-3-----------------------------------------------| 

E|-------------------------------------------------|-------------------------------------------------| 
B|-------------------------------------------------|-------------------------------------------------| 
G|-------------------------------------------------|-------------------------------------------------| 
D|-------------------------------------------------|-4-----4-----4-----4-----4-----4-----4-----4-----| 
A|-5-----------------------------------4-----------|-4-----4-----4-----4-----4-----4-----4-----4-----| 
E|-------------------------5-----------------------|-2-----2-----2-----2-----2-----2-----2-----2-----| 

E|-------------------------------------------------|-------------------------------------------------| 
B|-------------------------------------------------|-------------------------------------------------| 
G|-------------------------------------------------|-7-----7-----7-----7-----------------6-----------| 
D|-5-----5-----5-----5-----5-----5-----5-----5-----|-7-----7-----7-----7-----7-----------6-----------| 
A|-5-----5-----5-----5-----5-----5-----5-----5-----|-5-----5-----5-----5-----7-----------4-----------| 
E|-3-----3-----3-----3-----3-----3-----3-----3-----|-------------------------5-----------------------| 

E|-------------------------------------------------|-------------------------------------------------| 
B|-------------------------------------------------|-------------------------------------------------| 
G|-------------------------------------------------|-------------------------------------------------| 
D|-4-----4-----4-----4-----4-----4-----4-----4-----|-5-----5-----5-----5-----5-----5-----5-----5-----| 
A|-4-----4-----4-----4-----4-----4-----4-----4-----|-5-----5-----5-----5-----5-----5-----5-----5-----| 
E|-2-----2-----2-----2-----2-----2-----2-----2-----|-3-----3-----3-----3-----3-----3-----3-----3-----| 

E|-------------------------------------------------| 
B|-------------------------------------------------| 
G|-7-----7-----7-----7--------------6--------7-----| 
D|-7-----7-----7-----7-----7--------6--------7-----| 
A|-5-----5-----5-----5-----7--------4--------5-----| 
E|-------------------------5-----------------------| 


***********************************  

| x Dead Note 
| p Pull-off 

*********************************** 
  

top 5 | piebald
top rock alternativo
Outras músicas do artista letras do(a) Piebald
Top cifras »Top artistas »
Petaxxon Comunicação Online
Cifras.com.br - Melhor e mais completo site de cifras e tablaturas do Brasil
Mais de 1 milhão de acordes de músicas cadastradas desde 2003
As informações contidas no nosso site são colaborações de seus usuários e podem conter erros, sendo assim, não nos responsabilizamos sobre nenhuma destas.
close
menos
mais
close
Cor dos acordes:

Cor da letra:

 

save
close
close
 
redimensionar