Cifras e Tablaturas
Piebald

Piebald

Mount Pleasant

Cifras Cancelar Versão de Impressão
cifras

Piebald - Mount Pleasant

fixar na tela  
Exibindo: vídeo-aula ver clipes redimensionar

Tom:

  
Intro 
E|-----------------------------------------------------------------------------------| 
B|-----------------------------------------------------------------------------------| 
G|-----2--------2--------4-----4--5--6--7-----9--------9---------11----------11------| 
D|-----------------------------------------------------------------------------------| 
A|-----------------------------------------------------------------------------------| 
E|--1-----1--2-----2--3-----3--4--5--6--7--8-----8--9-----9--10------10--11------11--| 

E|-------------------------------------------------------| 
B|-----8--------10--------10---------12----------12------| 
G|-------------------------------------------------------| 
D|-------------------------------------------------------| 
A|--7-----7--8------8--9------9--10------10--10------10--| 
E|-------------------------------------------------------| 

E|-----------------------------------------------------------------------------------| 
B|-----------------------------------------------------------------------------------| 
G|-----2--------2--------4-----4--5--6--7-----9--------9---------11----------11------| 
D|-----------------------------------------------------------------------------------| 
A|-----------------------------------------------------------------------------------| 
E|--1-----1--2-----2--3-----3--4--5--6--7--8-----8--9-----9--10------10--11------11--| 

E|-------------------------------------------------------| 
B|-----8--------10--------10---------12----------12------| 
G|-------------------------------------------------------| 
D|-------------------------------------------------------| 
A|--7-----7--8------8--9------9--10------10--10------10--| 
E|-------------------------------------------------------| 


Riff 1 
E|------------------------------------------------------------------------------------| 
B|-------------------------------------8--10--10--13--12--10--12----------12----------| 
G|--2--2--4--4--5--6--7--9--9--11--11-----------------------------12----------12------| 
D|--------------------------------------------------------------------12----------12--| 
A|-------------------------------------7--8---8---12--10--8---10----------------------| 
E|--1--2--3--4--5--6--7--8--9--10--11-------------------------------------------------| 


Intro 
E|-----------------------------------------------------------------------------------| 
B|-----------------------------------------------------------------------------------| 
G|-----2--------2--------4-----4--5--6--7-----9--------9---------11----------11------| 
D|-----------------------------------------------------------------------------------| 
A|-----------------------------------------------------------------------------------| 
E|--1-----1--2-----2--3-----3--4--5--6--7--8-----8--9-----9--10------10--11------11--| 

E|-------------------------------------------------------| 
B|-----8--------10--------10---------12----------12------| 
G|-------------------------------------------------------| 
D|-------------------------------------------------------| 
A|--7-----7--8------8--9------9--10------10--10------10--| 
E|-------------------------------------------------------| 
  

top 5 | piebald
top rock alternativo
Outras músicas do artista letras do(a) Piebald
Top cifras »Top artistas »
Petaxxon Comunicação Online
Cifras.com.br - Melhor e mais completo site de cifras e tablaturas do Brasil
Mais de 1 milhão de acordes de músicas cadastradas desde 2003
As informações contidas no nosso site são colaborações de seus usuários e podem conter erros, sendo assim, não nos responsabilizamos sobre nenhuma destas.
close
menos
mais
close
Cor dos acordes:

Cor da letra:

 

save
close
close
 
redimensionar