Cifras e Tablaturas
Pillar

Pillar

Beautiful Savior

Cifras Cancelar Versão de Impressão
cifras

Pillar - Beautiful Savior

fixar na tela  
Exibindo: vídeo-aula ver clipes redimensionar
  
   G                       C 
E|-------------3----------|-------------3----------| 
B|-------3-----------3----|-------3-----------3----| 
G|------------------------|------------------------| 
D|----5-----5-----5-----5-|----5-----5-----5-----5-| 
A|------------------------|-3----------------------| 
E|-3----------------------|------------------------| 


   Em                       D 
E|-------------0----------|-------------2h3-------| 
B|-------3-----------3----|-------3-------------0-| 
G|------------------------|----2-----2------------| 
D|----------2-----2-----2-|-0----------------0----| 
A|----2-------------------|-----------------------| 
E|-0----------------------|-----------------------| 


E|-3--3-2-0-2-3------------------0--------------12----12----10-| 
B|--------------3~-------------3---8-7---7-8-10----12----12----| 
G|--------------------0-2--2/4---------9-----------------------| 
D|------------------0------------------------------------------| 
A|-------------------------------------------------------------| 
E|-------------------------------------------------------------| 


E|----15-14-12------------------3-2-3-|  
B|-15----------15-12-15---12-10-------|    
G|------------------------------------|   
D|------------------------------------| 
A|------------------------------------| 
E|------------------------------------| 
  

cifra enviadasem correções
enviado porenviada por:brunblazkowski
top 5 | pillar
top gospel
Outras músicas do artista letras do(a) Pillar
Top cifras »Top artistas »
Petaxxon Comunicação Online
Cifras.com.br - Melhor e mais completo site de cifras e tablaturas do Brasil
Mais de 1 milhão de acordes de músicas cadastradas desde 2003
As informações contidas no nosso site são colaborações de seus usuários e podem conter erros, sendo assim, não nos responsabilizamos sobre nenhuma destas.
close
menos
mais
close
Cor dos acordes:

Cor da letra:

 

save
close
close
 
redimensionar