Cifras e Tablaturas
Pillar

Pillar

Dirty Little Secret

Ano: 2004
Album : Where Do We Go from Here

Cifras Cancelar Versão de Impressão
cifras

Pillar - Dirty Little Secret

fixar na tela  
Exibindo: vídeo-aula ver clipes redimensionar

Tom:

  
D|-----------------------------------------------------------------------------| 
A|-----------------------------------------------------------------------------| 
F|-----------------------22--22--------------------5-55----------55-----55-----| 
C|------5533-----------33--33--33-5-------33553355-x-xx---------------77-------| 
G|0-5533----55-3h5-5-5-------------3-3-33-33333333-3-33-/7-77-00----00---------| 
C|0------------------5---------------3-33-33333333------/7-77------------------| 


Refrão: 

PM     ==     ==     ==         ==      ==     ==        ==     == 

D|--------------------------------------------------------------------------| 
A|----10-----10---------------10------10----------------3------3------3-----| 
F|----10-----10-----10--------10------10------10--------3------3------3-----| 
C|------------------10------------------------10----------------------------| 
G|0x-----00-----00-----03-8x------88------88-----80-5x-----55-----55--------| 
C|0x-----00-----00-----03-8x------88------88-----80-5x-----55-----55--------| 


PM        == 

D|--------------------------------|---------------------| 
A|-------10-----------------------|---------------------| 
F|-------10-----10----------------|-------6-6-----------| 
C|--------------10--------------0-|53p0-5-5-5/7-77------| 
G|---8x-----88--------------------|---------------------| 
C|35-8x-----88-----8h10-10-8-10---|---------------------| 


D|-------------------------------------------------------------------------------| 
A|14b-15171415171818-18p17p15----15-1813-10h12p10-8h10p8-6-6b8r6---6~------------| 
F|----------------------------17----------------------------------7--------------| 
C|-------------------------------------------------------------------------------| 
G|-------------------------------------------------------------------------------| 
C|-------------------------------------------------------------------------------| 


D|--------------------------10------------------------------------------8------| 
A|8-6-8b10r8-6-----6--------10-10b---------------------------------9/10--------| 
F|-------------7-5---5/7~-5----10b-7----10-5/7~-------77-------7910------------| 
C|-----------------------------------10---------10710--------79----------------| 
G|--------------------------------------------------------710------------------| 
C|-----------------------------------------------------------------------------| 


D|-----------------------------------------------------------------------------| 
A|8b10-----7/10-7/8~-7----7--------------------------6666-----------686--------| 
F|-----710-------------86---868~-----------5h7p52-5-------5/75-5/7-------------| 
C|------------------------------------3h5/7------------------------------------| 
G|-------------------------------1h3/5-----------------------------------------| 
C|-----------------------------------------------------------------------------| 


D|---/5-5-3-1---1-3-------------------------------------| 
A|--6---------3-----3~----------------------------------| 
F|7-----------------------------------------------------| 
C|------------------------------------------------------| 
G|------------------------------------------------------| 
C|------------------------------------------------------| 
  

top 5 | pillar
top gospel
Outras músicas do artista letras do(a) Pillar
Top cifras »Top artistas »
Petaxxon Comunicação Online
Cifras.com.br - Melhor e mais completo site de cifras e tablaturas do Brasil
Mais de 1 milhão de acordes de músicas cadastradas desde 2003
As informações contidas no nosso site são colaborações de seus usuários e podem conter erros, sendo assim, não nos responsabilizamos sobre nenhuma destas.
close
menos
mais
close
Cor dos acordes:

Cor da letra:

 

save
close
close
 
redimensionar