Cifras e Tablaturas
Pinegrove

Pinegrove

Recycling Audiotree

Cifras Cancelar Versão de Impressão
cifras

Pinegrove - Recycling Audiotree

fixar na tela  
Exibindo: vídeo-aula ver clipes redimensionar
  
Intro 
e|----0---0-----0---0-----0----| 
B|----12--12----12--12----12---| 
G|----11--11----11--11----11---| x4 
D|----9---9-----9---9-----9----| 
A|----11--11----11--11----11---| 
E|-0--0---0--0--0---0--0--0----|          end with E|-11/12 

Verse 
e|---0---4--0---------0---| 
B|---12--5--0--------(12)-| 
G|---11--4--6---------11--|  
D|---9---6--4---------9---| 
A|---11--6--7---------11--| 
E|---0---4--5--5/7/9------|  

emphasize strumming on the E,A,and D strings more and pick individually on G,B,e. 

Build-Up: (repeat this section twice) 
e|----------------------------------------------| 
B|----------------------------------------------| 
G|----------------------------------------------|            
D|------------------------14-14-13-13-11-11-9-9-| x2          
A|-------------11-11----------------------------|           \  
E|-12-12-14-14------14-14-----------------------|            \ 
    .  .  .  .  .  . .  .  .  .  .  .  .  . . .               \ 
                                                               )repeat both sections twice, then below 
e|-----------------------------------------------|            / 
B|-----------------------------------------------|           /  
G|-----------------------------------------------|          / 
D|-----------------------------------------------| x2 
A|-------------11-11-------12-12-11-11-9-9-------| 
E|-12-12-14-14-------14-14-----------------12-12-| 
    .  .  .  .  .  .  .  .  .  .  .  . . .  .  . 

e|-------| 
B|-------| 
G|-------| 
D|-9-7---| strum a bunch each 
A|-9-7---| 
E|-7-5---| 

Chorus: play 4 times but strumming only 0221 the 4th time. 
e|-------------------------------| 
B|-------------------------------| 
G|-1-11-1-11-1-11----------------| 
D|-2-22-2-22-2-22--9-9-9/11-11---| 
A|-2-22-2-22-2-22--9-9-9/11-11---| 
E|-0-00-0-00-0-00--7-7-7/-9--9---| 

Verse: I'm pretty sure Evan doesn't play the 12s this time around 
   @ "Recycling the cans" he begins palmmuting these chords emphasizing the E,A,D,and G strings.  
e|---0---4--0---------0---| 
B|--(12)-5--0--------(12)-| 
G|---11--4--6---------11--|  
D|---9---6--4---------9---| 
A|---11--6--7---------11--| 
E|---0---4--5--5/7/9------|  
    
Outro 
e|--------------------------| 
B|--------------------------| 
G|-1-1-1-1-1---------------| 
D|-2-2-2-2-2--11-11/9-9/11-| 
A|-2-2-2-2-2--11-11/9-9/11-| 
E|-0-0-0-0-0---9--9/7-7/-9-| 
The outro is not listed with accurate strumming, just the chords. it's very easy to figure out though.  


*********************************** 
| /   Slide up 
| \   Slide down 
| .   palm-mute heavily 
| ()  ghost note 
*********************************** 
  

cifra enviadasem correções
enviado porenviada por:carlluz
top 5 | pinegrove
top rock'n roll
Outras músicas do artista letras do(a) Pinegrove
Top cifras »Top artistas »
Petaxxon Comunicação Online
Cifras.com.br - Melhor e mais completo site de cifras e tablaturas do Brasil
Mais de 1 milhão de acordes de músicas cadastradas desde 2003
As informações contidas no nosso site são colaborações de seus usuários e podem conter erros, sendo assim, não nos responsabilizamos sobre nenhuma destas.
close
menos
mais
close
Cor dos acordes:

Cor da letra:

 

save
close
close
 
redimensionar