Cifras e Tablaturas
Pink Floyd

Pink Floyd

Comfortably Numb Tablatura Verificada

Ano: 1979
Album : Delicate Sound Of Thunder
Compositor : (David Gilmour / Roger Waters)

Cifras Cancelar Versão de Impressão
cifras

Pink Floyd - Comfortably Numb

fixar na tela  
Exibindo: vídeo-aula ver clipes redimensionar
  Guitar Acoustic:   

verse 1: D A D A C G C G   

Chorus: A C G D   

Solo 1: D A D A C G C G   

verse 2: Bm A G D/F# Em7   

Solo 2: Bm A G D/F# Em7   

Guitar Eletric:   

Frase - D :   

e|--5-------5-------5-------5-------|   
B|----7-5-----7-5-----7-5-----7-5---|   
G|--------7-------7-------7-------7-|   
D|----------------------------------|   
A|----------------------------------|   
E|----------------------------------|   

Frase - A :   

e|--5-------5-------5-------5-------|   
B|----5-------5-------5-------5-----|   
G|------7-6-----7-6-----7-6-----7-6-|   
D|----------------------------------|   
A|----------------------------------|   
E|----------------------------------|   

Frase - D :   

e|--5-------5-------5-------5-------|   
B|----7-5-----7-5-----7-5-----7-5---|   
G|--------7-------7-------7-------7-|   
D|----------------------------------|   
A|----------------------------------|   
E|----------------------------------|   

Frase 2 - A :   

e|----------------------------------|   
B|--5-2-----5-2-----5-2-----5-2-----|   
G|------4-2-----4-2-----4-2-----4-2-|   
D|----------------------------------|   
A|----------------------------------|   
E|----------------------------------|   

Frase - C :   

e|--3-------3-------3-------3--------|   
B|----5-3-----5-3-----5-3-----5-3----|   
G|--------5-------5-------5-------5--|   
D|-----------------------------------|   
A|-----------------------------------|   
E|-----------------------------------|   

Frase - G :   

e|--3-------3-------3---------------|   
B|----3-------3-------3-----------3-|   
G|------5-4-----5-4-----5-4---4-5---|   
D|--------------------------5-------|   
A|----------------------------------|   
E|----------------------------------|   

Solo 1:   

e|-----10---14-14b15r14---------------------------------|   
B|---10-------------------15b17-15-14-14----------------|   
G|-11------------------------------------14-------------|   
D|------------------------------------------14---12-12~-|   
A|------------------------------------------------------|   
E|------------------------------------------------------|   

e|-----10-14b15r14-------------------------------------|   
B|---10--------------15b17--15-14----------------------|   
G|-11-----------------------------14---------------12--|   
D|-----------------------------------14-12-11-9--------|   
A|----------------------------------------------12-----|   
E|-----------------------------------------------------|   

e|----------------------------------------------15-14-12--------------|   
B|---------------------------------------------x---------15-12--------|   
G|-11-9-7-r9p7-9^--7-7^--9p7---7-9-11-11b12---x----------------12-----|   
D|---------------------------9------------------------------------12^-|   
A|--------------------------------------------------------------------|   
E|--------------------------------------------------------------------|   

e|-------------|-------------------------------|   
B|-------------|-------------------------------|   
G|-------------|--11b12-9b11r9-7^--------------|   
D|-10\9--9/7---|-------------------7/9\7--7^---|   
A|-------------|-------------------------------|   
E|-------------|-------------------------------|   

Frase - D :   

e|--5-------5-------5-------5-------|   
B|----7-5-----7-5-----7-5-----7-5---|   
G|--------7-------7-------7-------7-|   
D|----------------------------------|   
A|----------------------------------|   
E|----------------------------------|   

Frase - A :   

e|--5-------5-------5-------5-------|   
B|----5-------5-------5-------5-----|   
G|------7-6-----7-6-----7-6-----7-6-|   
D|----------------------------------|   
A|----------------------------------|   
E|----------------------------------|   

Frase - D :   

e|--5-------5-------5-------5-------|   
B|----7-5-----7-5-----7-5-----7-5---|   
G|--------7-------7-------7-------7-|   
D|----------------------------------|   
A|----------------------------------|   
E|----------------------------------|   

Frase 2 - A :   

e|----------------------------------|   
B|--5-2-----5-2-----5-2-----5-2-----|   
G|------4-2-----4-2-----4-2-----4-2-|   
D|----------------------------------|   
A|----------------------------------|   
E|----------------------------------|   

Frase - C :   

e|--3-------3-------3-------3--------|   
B|----5-3-----5-3-----5-3-----5-3----|   
G|--------5-------5-------5-------5--|   
D|-----------------------------------|   
A|-----------------------------------|   
E|-----------------------------------|   

Frase - G :   

e|--3-------3-------3---------------|   
B|----3-------3-------3-----------3-|   
G|------5-4-----5-4-----5-4---4-5---|   
D|--------------------------5-------|   
A|----------------------------------|   
E|----------------------------------|   

Solo 2:   

e|-----------------------------------------------------------------|   
B|-----------------------------------------10----10-12-12b15-10-12-|   
G|-(7)-9-9b11-9b11r9p7-9-9b11r9p7---7--/11----11-------------------|   
D|--------------------------------9--------------------------------|   
A|-----------------------------------------------------------------|   
E|-----------------------------------------------------------------|   

e|------------------------------------------------7-9-9b10-7----7-------|   
B|--------------10p7---7------------------------7------------10---10b12-|   
G|-7-9--r9p7---------9---9p7-------------7------------------------------|   
D|-----------9---------------9------7-7-9--9-9--------------------------|   
A|------------------------------7/9-------------------------------------|   
E|----------------------------------------------------------------------|   

e|----------------7-----------------------------------------------|   
B|--10p7--------7---10p7------------------------------------------|   
G|-------9-9b11----------9-r9p7---9p7---------------------7-7-7^--|   
D|------------------------------9-----9-7-------------------------|   
A|----------------------------------------9-8-7/5---5-------------|   
E|------------------------------------------------7---------------|   

e|-------7----------------------------------------------------------|   
B|---------10p7-----------------------------------------------------|   
G|--9b11--------9-9p7---9-7-----------------------------------------|   
D|--------------------9-----9-7-----------------------------7-7--7^-|   
A|------------------------------9-9p7/5-7p5---5-7-----5-7/9---------|   
E|------------------------------------------7-----5h7---------------|   

e|---------------7--------------------------7------------------------|   
B|----7---7-9b11---10---------------------7---10p7-------------------|   
G|--9---9-------------9b11-9-7^-9-7--9b11----------9-r9p7---9p7------|   
D|--------------------------------------------------------9-----9-7--|   
A|-------------------------------------------------------------------|   
E|-------------------------------------------------------------------|   

e|--------------------------------------------------------7------------|   
B|-----------------7-------7-------7------------------------10-7-10b12-|   
G|-----------------7-------7-------7---7-9b11r9p7--9-9b11--------------|   
D|--------------------9^-------9^----9---------------------------------|   
A|--9-8-7/5---5-0------------------------------------------------------|   
E|----------7----------------------------------------------------------|   

e|--------7--------------------------------------------------------|   
B|------7---10p7---------------------------------------------------|   
G|-9b11----------9b11-11r9p7---9p7---7-----------------------------|   
D|---------------------------9-----9---9-7-9p7-----------------/9--|   
A|---------------------------------------------9-8p7/5-7p5---------|   
E|---------------------------------------------------------7-------|   

e|------------------------------------------------------------------|   
B|-------7-7-7-7-7\------------------------------7----------------7-|   
G|-7\----7-7-7-7-7\--7---------7-9-9b11-11r9p7---7----------------7-|   
D|-------x-x-x-x-x---7--7^-7h9-----------------9---9p7----7-9p7-----|   
A|-------x-x-x-x-x-------------------------------------9--------9---|   
E|------------------------------------------------------------------|   

e|---------------------------------------------|   
B|-----------------7---------7-7-7--7--7-7-7---|   
G|-----------------7-9p7-9---7-7-7--7--7-7-7---|   
D|-9p7---7--9p7--------------------------------|   
A|-----9--------9------------------------------|   
E|---------------------------------------------|   

e|--19--19-21-21b22-21b22-21-22r21b22---22r21-19^-|   
B|------------------------------------------------|   
G|------------------------------------------------|   
D|------------------------------------------------|   
A|------------------------------------------------|   
E|------------------------------------------------|   

e|----------------------------------------------|   
B|----------------------------------------------|   
G|-21-21-21b23-21b23r21b19-21-19-21-23r21p19----|   
D|-------------------------------------------21-|   
A|----------------------------------------------|   
E|----------------------------------------------|   

e|-----------------------------------------------------------|   
B|----------------------12^----------15----17-19r17p15-17-16-|   
G|-14-16-----------------------14/16----16-------------------|   
D|-------12h14-14p12-----------------------------------------|   
A|-------------------14--------------------------------------|   
E|-----------------------------------------------------------|   

e|------------------------------------------|   
B|-12b15-10-12------------------------------|   
G|-------------11p9-9p7---7-----------------|   
D|----------------------9---9-7-------------|   
A|------------------------------9-8-7-5b----|   
E|---------------------------------------7\-|   

e|-------------------------------------|   
B|--7-7-7b----x--7-7-7b----x--7-7-7b---|   
G|--7-7-7b-x--x--7-7-7b-x--x--7-7-7b-x-|   
D|--x-x-x--9--x--x-x-x--9--x--x-x-x--9-|   
A|-------------------------------------|   
E|-------------------------------------|   


  

cifra enviadacorrigido por:Acelot
enviado porenviada por:Acelot
top 5 | pink floyd
top rock clássico
Outras músicas do artista letras do(a) Pink Floyd
4.
Time
Top cifras »Top artistas »
Petaxxon Comunicação Online
Cifras.com.br - Melhor e mais completo site de cifras e tablaturas do Brasil
Mais de 1 milhão de acordes de músicas cadastradas desde 2003
As informações contidas no nosso site são colaborações de seus usuários e podem conter erros, sendo assim, não nos responsabilizamos sobre nenhuma destas.
close
menos
mais
close
Cor dos acordes:

Cor da letra:

 

save
close
close
 
redimensionar