Cifras e Tablaturas
Pink Floyd

Pink Floyd

Shine On You Crazy Diamond Tablatura

Cifras Cancelar Versão de Impressão
cifras

Pink Floyd - Shine On You Crazy Diamond

fixar na tela  
Exibindo: vídeo-aula ver clipes redimensionar
  
 Gm   
e-|---------------------------|----------------------------------------|   
B-|----18b(20)~--18--18b(20)~-|----------------------------------------|   
G-|---------------------------|--------15--17--17b(19)--17--17b(19)~---|   
D-|---------------------------|----17----------------------------------|   
A-|---------------------------|----------------------------------------|   
E-|---------------------------|----------------------------------------|   
   
			  	Dm   
e-|---------------------------|-------------------------|   
B-|---------------------------|-------------------------|   
G-|--------17b(19)r17p15--17--|-17b(19)--17-17b(19)-----|   
D-|---------------------------|-------------------------|   
A-|---------------------------|-------------------------|   
E-|---------------------------|-------------------------|   
   
							  Cm   
e-|--------------------------------|--------------------|---------------------|   
B-|-----10h11p10----10-------------|--------------------|---------------------|   
G-|--------------12----10-10----10-|--------12-b(15)r12-|--12b(15)----(15)r12-|   
D-|--------------------------12----|--------------------|---------------------|   
A-|--------------------------------|--------------------|---------------------|   
E-|--------------------------------|--------------------|---------------------|   
   
e-|----------------------|----------------------|----------------------------|   
B-|----------------------|----------------------|-------------------------18-|   
G-|--10h12--12b(15)~-----|---------12b(15)-r12--|--10--12--12~---17b(19)-----|   
D-|----------------------|----------------------|----------------------------|   
A-|----------------------|----------------------|----------------------------|   
E-|----------------------|----------------------|----------------------------|   
   
     Gm   
e-|-----------------|--------15--18~-----18b(20)-|--18\~---------------------|   
B-|--18b(20)--------|18b(20)---------------------|---------------------------|   
G-|-----------------|----------------------------|-----------17-b(18)r17-15--|   
D-|-----------------|----------------------------|---------------------------|   
A-|-----------------|----------------------------|---------------------------|   
E-|-----------------|----------------------------|---------------------------|   
   
e-|----------------------------|-----------------------------|---------------|   
B-|----------------------------|-----------------------------|---------------|   
G-|--------------10--12~-------|--12b(15)-(15)-(15)---r12----|--10h12~-------|   
D-|----------12----------------|-----------------------------|---------------|   
A-|----------------------------|-----------------------------|---------------|   
E-|----------------------------|-----------------------------|---------------|   
   
				     Dm   
e-|-------------------------------|----------------|--------------------|   
B-|-------------------------------|----------------|------------18------|   
G-|------------17b(19)r17p15--17--|--17b(19)~------|----17b(19)---------|   
D-|-------------------------------|----------------|--------------------|   
A-|-------------------------------|----------------|--------------------|   
E-|-------------------------------|----------------|--------------------|   
   
e-|----------15-----------------------------|---------------------------------|   
B-|-18b(20)------18b(20)~-----18b(20)r18-15-|---------------------------------|   
G-|-----------------------------------------|-17b(19)~-------17b(19)r17p15-17-|   
D-|-----------------------------------------|---------------------------------|   
A-|-----------------------------------------|---------------------------------|   
E-|-----------------------------------------|---------------------------------|   
   
    Cm						    Dm   
e-|------------------|----------------------------|--------------------------|   
B-|------------------|----------------------------|-----------------------18-|   
G-|-17---------------|---15~-----17b(19)r17p15-17-|-17b(19)-------17b(19)----|   
D-|-----------15/17--|----------------------------|--------------------------|   
A-|------------------|----------------------------|--------------------------|   
E-|------------------|----------------------------|--------------------------|   
   
				  Gm   
e-|-------------------------15--|--18-------------18--20b(22)-|   
B-|-----------------18b(20)-----|-----------------------------|   
G-|-17b(19)---------------------|-------------19--------------|   
D-|-----------------------------|-----------------------------|   
A-|-----------------------------|-----------------------------|   
E-|-----------------------------|-----------------------------|   
   
				     		         Segue to Part II   
e-|----18-b(20)-r18--17------|-15-----------------|-----------------------|   
B-|----------------------18--|--------------------|-----------------------|   
G-|--------------------------|--------------------|-----------------------|   
D-|--------------------------|--------------------|-----------------------|   
A-|--------------------------|--------------------|-----------------------|   
E-|--------------------------|--------------------|-----------------------|   
   
--   
---------------0----   
------6-------------	<-- repeat 4 times.   
----------0---(0)---   
---8----------(8)---   
--------------------   
--------------------   
   
C						 Gm7   
-------------0----------------------------------------------------0---   
------6-----------------------------------------------------6---------   
---------0-----------------------------------------------------0------   
---8-----------------------------------------------------8------------   
-----------------3--3--3--3--3--3--3--3--3--3/5-----------------------   
-----------------1--1--1--1--1--1--1--1--1--1/3-----------------------   
   
		Eb		D					Gm7   
------------------------------------------------------------------------   
------6-----------------------------------------------------------------   
----------0---8------------8---7----------------------------------------   
--8-----------8------------8---7----------------------------------------   
-------------------------------------3--3--3--3--3--3--3--3--3--3/5-----   
-------------------------------------1--1--1--1--1--1--1--1--1--1/3-----   
   
------------------0---   
-------6--------------   
------------0---------   
---8------------------   
----------------------   
----------------------   
   
   
Solo:   
-------------------------------------3---------------------------------------   
----------------------------------3-----3------------------------------------   
---17>(19)>17---15--17----------------------5>(7)----(7)>5>3------5---3------   
------------------------17\------------------------------------5----------5--   
-----------------------------------------------------------------------------   
-----------------------------------------------------------------------------   
   
--18>15-----18---17>(18)--17vvv---------------------------------------------   
--15----15--15---------------------18>15--18>(20)----18>(20)>18>15--18vvvv--   
----------------------------------------------------------------------------   
----------------------------------------------------------------------------   
----------------------------------------------------------------------------   
----------------------------------------------------------------------------   
   
--18>15------18>15-----18>(20)---18>(20)>1815--18------------------   
---------15--------15------------------------------18>(20)--18\----   
-------------------------------------------------------------------   
-------------------------------------------------------------------   
-------------------------------------------------------------------   
-------------------------------------------------------------------   
   
--------------------------------------------------------------------------   
--------------------------------------------------------------------------   
--15>(17)>(19)>15--12--15>(16)vvv-12------6\5--3>(4)----------------------   
-------------------------------------------------------5------------------   
-----------------------------------------------------------4\3---1--3/5---   
--------------------------------------------------------------------1/3---   
   
--------------------------6--------------------------------------   
-----------------------------5/6--8/-------(11)>10>8------8/-----   
------3--------------6>7------------------------------10---------   
------3--3/5vvvvvv-----------------------------------------------   
--4/5------------------------------------------------------------   
-----------------------------------------------------------------   
   
-------------------------------------------------------------------------   
-------------------------------------------------------------------------   
---15--17>(19)>17>(19)----17>(19)>(20)vvvvv----17>(19)>(20)---17>(20>17--   
-------------------------------------------------------------------------   
-------------------------------------------------------------------------   
-------------------------------------------------------------------------   
   
--------------------------------15----15-----15--------------15---15--   
----------------------------18>(20)------18>(20)>18>15---18>(20)------   
----------------------------------------------------------------------   
--16---16>17>16\14>16--16---------------------------------------------   
----------------------------------------------------------------------   
----------------------------------------------------------------------   
   
--17>(18)--17>(18)---17-----------------------------------------------   
-------------------------18>(20)----(20)>18>15---18-------------------   
-----------------------------------------------------17>(19)=====>17--   
----------------------------------------------------------------------   
----------------------------------------------------------------------   
----------------------------------------------------------------------   
   
---------------------------------------------------------------------------   
---------------------------------------------------------------------------   
--(19)>17>15-----------------3---5---5>(7)>(8)>5---(8)>5--3--5--5>(7)vvvv--   
--------------17\---------5------------------------------------------------   
---------------------------------------------------------------------------   
---------------------------------------------------------------------------   
   
-----------------------------------------------------------------------   
----------3----6-------------------------------------------------------   
---5>(7)-----------5>(8)==========>5--(7)>5>3-----5--5>(7)vvvvvvvv>5---   
-----------------------------------------------------------------------   
-----------------------------------------------------------------------   
-----------------------------------------------------------------------   
   
KEYBOARD Solo:   
Gm					 Cm   
------------------------------------------------------------   
---------5\3-------------------5\3-------------------10\8---   
------------------------------------------------------------   
---3/5---5\3--------------3/5--5\3-------------8/10--10\8---   
---------------------------------------5--------------------   
------------------------------------6-----------------------   
   
Gm		   Eb	   D	 Eb		D    Gm    Cm   Gm    D7#9   
----------------------------------------------------------------------------   
--------5\3-----8------7------8------11\---7---------------------------6----   
-----------------------------------------------------------------------5----   
---3/5--5\3-----8------7------8------11\---7---------------------------4----   
-----------------------------------------------------------------------5----   
----------------------------------------------------------------------------   
   
Solo:   
------15------------15---18>15-------------------3----------------0----------   
--15-------18>(20)--------------18>(20)\------3------6-----------------------   
---------------------------------------------------------5>(7)----5>3--5--3--   
-----------------------------------------------------------------------------   
-----------------------------------------------------------------------------   
-----------------------------------------------------------------------------   
   
-----------------------------------------------------------18-----------------   
--------------------------------------11----11-----18>(20)-----18>(20)vvvv18\-   
----------15>(17)>15>(19)>15----11/12----12-----------------------------------   
--5vvvv-----------------------------------------------------------------------   
------------------------------------------------------------------------------   
------------------------------------------------------------------------------   
   
-------6>5--------------------------------------------------------------   
------------6/8\--------------------------------------------------------   
--6/7--------------(17)>15>(19)>15--------15--17>(18)>17>15--17--17>15--   
------------------------------------15/17-------------------------------   
------------------------------------------------------------------------   
------------------------------------------------------------------------   
   
-------------------------------3----------------------------------------------   
----------------------------------6--------------------3----------------------   
--17--17--17>15--17>(19)vvvv\--------5>(7)---5--3>(5)--3---3---5----3\2-------   
---------------------------------------------------------5-------5------3-----   
--------------------------------------------------------------------------3/5-   
------------------------------------------------------------------------------   
   
-----------------------------------------------15-------------------------   
-------------------------------------18>(20)--------18>(20)-----18>(20)---   
--------3---------15>(17)>15>(19)>0--------------------------0------------   
-----------3>5------------------------------------------------------------   
--4/5---------------------------------------------------------------------   
--------------------------------------------------------------------------   
   
--15--18>15--18>(20)vvv-----18>(20)>18>15--18---------------------------------   
-----------------------------------------------18>(20)------------------------   
-------------------------0-----------------------------------15--17--17>(19)--   
---------------------------------------------------------17-------------------   
------------------------------------------------------------------------------   
------------------------------------------------------------------------------   
   
--------------------------------------------------------------------   
--------------------------------------------------------------------   
--17>(20)---17>(20)>17---------------------------------14--15vvvv\--   
-------------------------16vvvv---16>17>16\14--16--17--16--17vvvv\--   
--------------------------------------------------------------------   
--------------------------------------------------------------------   
   
-----3-----------------------------------------------------------   
--3----6---------------------------------------------------------   
----------5>(7)vvvv>5---(8)>5>3---5--3----3----------------------   
----------------------------------------5----5-------------------   
------------------------------------------------5\3--1--3/5--5\--   
-----------------------------------------------------------------   
   
   
Verse:   
Remember when you where young.......   
-------------------------------------3-------   
----------------------------------3--3-------   
-----3-----5>(7)>5----------------3----------   
--5-----5------------4---------3-------------   
-------------------------------1----------5--   
---------------------------------------------   
   
   
Shine on you crazy.......   
   
--------------------------------------------------   
--------------------------------------------------   
--------------------------------------------------   
--8---8---5---3---3-------------------------------   
--6---5---3---1---3---3>(5)>3---------------------   
------------------1-------------1vvvv---1--2vvvv--   
   
   
Now there's a look.....   
   
-----------------------------------------------   
----6>(8)>6---------2------------3--3--3-------   
-------------5>(7)---------------3--3--3-------   
-----------------------------3---3--3----------   
-----------------------------1-------------5\--   
-----------------------------------------------   
   
   
   
Shine on you crazy.....   
-------------------------13--13--13--10--8/10--1--   
-------------------------13--13--13--10--8/10--1--   
---8---8---5---3----------------------------------   
---6---5---3---1----------------------------------   
--------------------1-----------------------------   
--------------------------------------------------   
   
   
You were cought in the crossfire....   
and   
Well you wore out your welcome...   
   
   
-----------------------------------------------------------------   
-----------------------------------------------------------------   
-----3--5--5>(7)>5-------3--5--5>(7)>5>3-----3--5--5>(7)>5-------   
--5-------------------4-------------------3------------------2---   
-----------------------------------------------------------------   
-----------------------------------------------------------------   
   
   
-----------------------------------------------------------------------1---2---   
-----------------------------------------5-----------------6-----------------3-   
-----------------8-----8--------------6-----6-----------7-----7----------------   
-----------------8>10--8-----------5------------------8----------8--0----0-----   
--3--5--6--8/10-----------10\7--7----------------7--8--------------------------   
-------------------------------------------------------------------------------   
   
   
interlude is part 4   
   
You reached for the ...   
---------------------------------------------------------3-------------   
----------------------11--13>(15)>13-----------------3---3---3---------   
-----------------------3---5>(7)>5--->3--------------3-------3---------   
---5-----------------------------------------4---3---------------------   
-------------------------------------------------1------------------5--   
---3-------------------------------------------------------------------   
   
   
Shine on you crazy....   
------------------------------------------------------------   
------------------------------------------------------------   
------------------------------------------------------------   
---8---8---5---3--------------------------------------------   
---6---5---3---1--------3---3>(5)--3------------------------   
--------------------1---1-------------3>(5)---1vvvvvv--1/2--   
   
   
   
threatened by shadows...   
------------------------------------------------------------   
---6>(8)>6>(8)>6--6-----------------------------3-----3-----   
---------------------5>(7)---3>5>3vvvvvv--------3--3--3-----   
---------------------------------------------3--3--3-----3--   
---------------------------------------------1--------------   
-----------------------------------------------------------   
   
Shine on you crazy.....   
------------------------13--13--13--10--8\1--   
------------------------13--13--13--10--8\1--   
---------------------------------------------   
---8--8--5--3--------------------------------   
---6--5--3--1--------------------------------   
-----------------1---------------------------   
   
   
Two Guitars:   
-----------------------------------------------------   
--13>(15)vvvvvvvvv--(15)>13>11--13>(15)vvvvvvvvvvv---   
---5>(7)vvvvvvvvvv---(7)>5>3-----5>(7)vvvvvvvvvvvv---   
-----------------------------------------------------   
-----------------------------------------------------   
-----------------------------------------------------   
   
-----------------------------------------13--15>(16)--15vvvvv\--   
--(15)>13--11--13--14--15vvvv---15--16----6---8>(9)----8vvvvv---   
---(7)>5----3---5---6---7vvvv----7---8--------------------------   
----------------------------------------------------------------   
----------------------------------------------------------------   
----------------------------------------------------------------   
   
----------------------------------------------------------------------------   
--15>(16)-----15-------16>(18)--16>15---13vvv-------------------------------   
---7>(8)-------7--------8>(10)---8>7-----5vvv----12>10vvvvvv----------------   
--------------------------------------------------------------------4vvvvv--   
----------------------------------------------------------------------------   
-----------------------------------------------3>(5)>3--1vvvv---1---2vvvvv--   
   
   
   
---------------0------------------------------0----   
------6-----------------------------6--------------   
---------0----(0)------------------------0---(0)---   
--8-----------(8)---------------8------------(8)---   
---------------------------------------------------   
---------------------1>3>1>3-----------------------   
   
--8-------10------8------0------8------10-------8--------   
----6--------6------6------6------6-------6--------6-----   
---------------------------------------------------------   
-------8-------8------8------8------8-------8---------8--   
---------------------------------------------------------   
---------------------------------------------------------   
   
-0--------8--------10------8-------0------8--------10-------8--------   
----6--------6---------6-----6-------6-------6--------6--------6-----   
--------------------------------------------------------------------- repeat   
-------8--------8--------8------8-------8-------8--------8-------8---	3   
--------------------------------------------------------------------- times.   
---------------------------------------------------------------------   
   
--6---6------6-------5-------6-------6--------6------5------6---------   
---------------8-------8-------8--------8-------8------8-------8------   
----------------------------------------------------------------------   
---------8--------8-------8-------8--------8-------8-----8--------8---   
----------------------------------------------------------------------   
----------------------------------------------------------------------   
   
--5-------5-------4-------5--------6-----5--------4-----5---------   
----7-------7-------7--------7--------7-----7--------7-----7------   
------------------------------------------------------------------   
------7--------7-------7--------7-------------7---------------7---   
------------------------------------------------------------------   
------------------------------------------------------------------   
   
--0-------8--------10--------8-------0-------8-------10--------8-------   
----6-------6----------6-------6-------6--------6--------6-------6-----   
----------------------------------------------------------------------- repeat   
------8--------8---------8--------8-------8--------8--------8-------8--	 8   
----------------------------------------------------------------------- times.   
-----------------------------------------------------------------------   
   
--6------6------5------6------6------6-----5-------6---------   
----8------8------8-------8-----8-------8-----8------8-------   
-------------------------------------------------------------   
------8-------8------8------8------8-------------8------8\7--   
-------------------------------------------------------------   
-------------------------------------------------------------   
   
--5-----5-----4-----5-----6------5-----4-----5---------   
-----7----7-----7-----7-----7-------7-----7-----7------   
-------------------------------------------------------   
------------7-----7-----7-----7--------------------7---   
-------------------------------------------------------   
-------------------------------------------------------   
   
--0-------8-------10------8------0--------8-------10--------8---------   
-----6-------6-------6------6-------6-------6---------6--------6------   
---------------------------------------------------------------------- repeat   
-------8-------8--------8------8-------8-------8---------8---------8--  and   
---------------------------------------------------------------------- fade   
----------------------------------------------------------------------   
   
E--||------------------------------------|-----------------------------   
B--||*-----------------------------------|-----------------------------   
G--||------------------------------------|-----------------------------   
D--||------------------------------------|-----------------------------   
A--||*-----------------------------------|-----------------------------   
E--||---3--3--3--3--3--3--3--3--3--3--3--|--3--3--3--3--3--3--3--3--3--   
    
   
E|-----|---||--------------------------------------|------------------   
B|-----|--*||--------------------------------------|------------------   
G|-----|---||--------------------------------------|------------------   
D|-----|---||--------------------------------------|------------------   
A|-----|--*||--------------------------------------|------------------   
E|--3--|---||--3--3--3--3--3--3--3--3--3--3--3--3--|--15----\------3--   
   
   
E|----------------------|--------------------------|----10----10----10--   
B|----------------------|--------------------------|----11----11----11--   
G|----------------------|--------------------------|----12----12----12--   
D|----------------------|--------------------------|--------------------   
A|----------------------|--------------------------|--------------------   
E|------1/3----1/3------|----15\------3--1/3--1/3--|--------------------   
    
   
E|--10\---------|------|-------------------------------*|--------------   
B|--11\---------|------|-------------------------------*|--------------   
G|--12\---------|----7/|--10---------------------------*|--------------   
D|--------------|----5/|---8---------------------------*|--------------   
A|--------------|------|-------------------------------*|--------------   
E|---------15\--|------|------------15\------3----1/3--*|--------------  
  
                                       slide guitar   
   
E|---------------------------------------------------------------------   
B|---------------------------------------------------------------------   
G|--------------------------------17/18------------18\15---------------   
D|--------------------------------------------------------15/17--------   
A|---------------------------------------------------------------------   
E|---------------------------------------------------------------------   
     
   
E|---------------------------------------------------------------------   
B|---------------------------------------------------------------------   
G|---------------------------------------------------------------------   
D|--------/15/17\15/--17----------------------------------17/----18----   
A|---------------------------------------------------------------------   
E|---------------------------------------------------------------------   
   
   
E|------------------|--------------------------|----------------------   
B|------------------|--------------------------|----------------------   
G|------------------|--------------------------|----18\----15---------   
D|------------------|--------------------------|---------------15/17--   
A|------------------|--------------------------|----------------------   
E|------------------|--------------------------|----------------------    
   
   
E|--------------------------------------------------------------------   
B|--------------------------------------------------------------------   
G|----------------17/--18--------------------------17/18--------------   
D|--------------------------------------------------------------------   
A|--------------------------------------------------------------------   
E|--------------------------------------------------------------------   
   
   
E|---------------------------------------------------------------------   
B|---------------------------------------------------------------------   
G|---------------------------------------------------------------------   
D|-----------------------------------------12\----10------------------/   
A|----0----------------------------------------------------------------   
E|---------------------------------------------------------------------   
   
   
E|---------------------------------------------------------------------   
B|------11p8-----------------------------------------------------------   
G|------------------0--------------------------------------------------   
D|--12-----------------------------------------------------------------   
A|---------------------------------------------------------------------   
E|---------------------------------------------------------------------   
    
   
E|---------------------------------------------------------------------   
B|---------------------------------------------------------------------   
G|--------------------------------------------------------------5------   
D|------5\----3----5\3------/----4----/----5---------------------------   
A|---------------------------------------------------------------------   
E|---------------------------------------------------------------------   
   
   
E|--------------||-----------------------------------------------------   
B|--------------||-----------------------------------------------------   
G|--------------||--12------12\10------12------------------------------   
D|--------------||-----------------12----------------------------------   
A|--------------||-----------------------------------------------------   
E|--------------||-----------------------------------------------------   
   
    
E|---------------------------------------------------------------------   
B|------------------11\----10------------------------------------------   
G|-----------------------------------------7----10/------12------------   
D|--------------12------------------------------10/------12------------   
A|---------------------------------------------------------------------   
E|---------------------------------------------------------------------   
   
   
E|--------------------------------------------------------------------   
B|--------------------------------------------------------------------   
G|---------------------------------------------------------12----12\--   
D|----------------------------------------10/12----12-----------------   
A|----13--12----10----------------------------------------------------   
E|--------------------------------------------------------------------   
   
    
E|--------------------------------------------------------------------   
B|--------------------------------------------------------------------   
G|--10------12--------12/--19------15/17----/15--15----/14------------   
D|------12------------------------------------------------------------   
A|--------------------------------------------------------------------   
E|--------------------------------------------------------------------   
   
   
E|--------------------------------------------------------------------   
B|--------------------------------------------------------------------   
G|--------------------------------15------------17--21------17----15--   
D|------------15--17----15--17----15--17------------------------------   
A|--------------------------------------------------------------------   
E|--------------------------------------------------------------------   
   
   
E|---------------------------------------------------------------------   
B|---------------------------------------------------------------------   
G|----12---------------------------------------------------------------   
D|------------12\--10----8----12------------------15/----17----14------   
A|---------------------------------------------------------------------   
E|---------------------------------------------------------------------   
    
   
E|---------------------------------------------------------------------   
B|---------------------------------------------------------------------   
G|---------------------------------------------------------------------   
D|--------14--12--10--------------10/----------------------------------   
A|--------------------12--13-------------------------------------------   
E|---------------------------------------------------------------------   
  
   
E|-----------------------------------------------------------------------   
B|-------------------------------------10--11----\10----10---------------   
G|------12----12\10------12---------------------------------10----10/12--   
D|------12-----------12--------------------------------------------------   
A|-----------------------------------------------------------------------   
E|-----------------------------------------------------------------------   
   
    
E|---------------------------------------------------------------------   
B|-------------------------------------------20----------20------------   
G|--12----------------/17----19----------------------------------------   
D|-------------------------------------------------------------10------   
A|---------------------------------------------------------------------   
E|---------------------------------------------------------------------   
   
   
E|--------------------------------------------------------------------   
B|--------------------------------------------------------------------   
G|--15----------14--------12------10------7------5------3------2------   
D|--------------------------------------------------------------------   
A|--------------------------------------------------------------------   
E|--------------------------------------------------------------------   
   
   
E|------------------------------------||--*|-----------------------------   
B|---------------------3--------------||--*|-----------------------------   
G|-----------0----2/3-----3-----------||--*|--------12-------------------   
D|----3/5----------------------10/12--||--*|-----------------------------   
A|------------------------------------||--*|----------------------13/12--   
E|------------------------------------||--*|-----------------------------   
   
  
E|------------------------------------------------------------------||--   
B|------------------------------------------------------------------||--   
G|------------------------------------------------------------------||--   
D|-------------------------------------------------10\--------------||--   
A|--10--------10--8--10--8------/--10-------------------------------||--   
E|-----------------------------------------10-----------------------||--   
   
   
   
      slide off fret board through out tab approximates extended finger board   
   
E|---------------------------------------------------------------------   
B|---------------------------------------------------------------------   
G|----24------24/22/24----24--------------24\22--24/27----24------/22--   
D|----24--------------------------22--24--24\22------------------------   
A|---------------------------------------------------------------------   
E|---------------------------------------------------------------------   
   
   
E|----------------------------------------------------------------------   
B|----------------------------------------------------------------------   
G|--------24--24/27------24------/22--------24--------24\22------22/24--   
D|----24--------------------------------24-------------------24---------   
A|----------------------------------------------------------------------   
E|----------------------------------------------------------------------    
   
   
E|--------------------------------------------------------------------   
B|--------------------------------------------------------------------   
G|--24-----------------24------24----/------29----29--------27--------   
D|------------22/24--------24-----------------------------------------   
A|--------------------------------------------------------------------   
E|--------------------------------------------------------------------   
    
   
E|--------------------------------------------------------------------   
B|--------------------------------------------------------------------   
G|------------26--------24------22/24------24--------24\--------------   
D|-------------------------------------24------------24\--------------   
A|--------------------------------------------------------------------   
E|--------------------------------------------------------------------   
     
   
E|--------------------------------------------------------------------   
B|----------------1/----------------------------------------------27--   
G|--------------------------------------------------------------------   
D|--------------------------------------------------------------------   
A|--------------------------------------------------------------------   
E|--------------------------------------------------------------------   
    
   
E|------27\25------27------27\25/27----29/29------29\27--27----27\25--   
B|-------------27-----------------------------------------------------   
G|--------------------------------------------------------------------   
D|--------------------------------------------------------------------   
A|--------------------------------------------------------------------   
E|--------------------------------------------------------------------   
     
   
E|------*|----29--------27--29--------------29----------29--29--------   
B|--27--*|------------------------------------------------------------   
G|------*|------------------------------------------------------------   
D|------*|------------------------------------------------------------   
A|------*|------------------------------------------------------------   
E|------*|------------------------------------------------------------   
    
   
E|------------------------------------------27------26--26--------22--   
B|--------------------------------------------------------------------   
G|--------------------------------------------------------------------   
D|--------------------------------------------------------------------   
A|--------------------------------------------------------------------   
E|--------------------------------------------------------------------   
      
   
E|--------22\20--20---------------------------------------------------   
B|-----------------------13/15----------------------------------------   
G|--------------------------------------------------------------------   
D|--------------------------------------------------------------------   
A|--------------------------------------------------------------------   
E|--------------------------------------------------------------------   
       
   
E|--------------------------------------------15----------------------   
B|----------------------------------------------------15\13----11--13/   
G|--------------------------------------------------------------------   
D|--------------------------------------------------------------------   
A|--------------------------------------------------------------------   
E|--------------------------------------------------------------------   
       
   
E|------15----15/17/18----17------15\----13----------13----------------   
B|--15-----------------------------------------------------------------   
G|---------------------------------------------------------------------   
D|---------------------------------------------------------------------   
A|---------------------------------------------------------------------   
E|---------------------------------------------------------------------   
    
   
E|----------13/15--------------------------------------------*|--------   
B|-----------------------15\13--11------------13/15----------*|--------   
G|------------------------------------12---------------------*|--------   
D|-------------------------------------------------------12--*|--------   
A|-----------------------------------------------------------*|--------   
E|-----------------------------------------------------------*|--------   
      
   
E|---------------------------------------------------------------------   
B|------------------------------------5b7------------5b7----r----------   
G|---------------------------------------------------------------------   
D|---------------------------------------------------------------------   
A|---------------------------------------------------------------------   
E|---------------------------------------------------------------------   
      
   
E|----------------------------------------------------------------------   
B|--5b7----r5b2----r3------5b7--------5b7-------------------------------   
G|-------------------------------------------------------------------5--   
D|----------------------------------------------------------------------   
A|----------------------------------------------------------------------   
E|----------------------------------------------------------------------   
       
   
E|-------------------------------------------------------------------3b5--   
B|----------------------------------------------------3--------4--6-------   
G|------------------5--3------------5b7------6r5--------------------------   
D|------------------------------------------------------------------------   
A|------------------------------------------------------------------------   
E|------------------------------------------------------------------------   
       
   
E|------------------3b5--------r3----3---------------------------------   
B|--------------------------------------------3b5--------3--3----------   
G|---------------------------------------------------------------------   
D|---------------------------------------------------------------------   
A|---------------------------------------------------------------------   
E|---------------------------------------------------------------------   
       
   
E|----------------------------------------------------------------------   
B|--------------------------------------4b6----4p--3--------------------   
G|----------------------------------------------------5-----------------   
D|----------------------------------------------------------------------   
A|----------------------------------------------------------------------   
E|-----------------------------------------------------------3------r3--   
   
   
E|-------------------------------------*|--   
B|-------------------------------------*|--   
G|-------------------------------------*|--   
D|-------------------------------------*|--   
A|-------------------------------------*|--   
E|------1------------------1--------2--*|--   
  

   
   
e|------------|------------|------------|------------|------------|   
B|-------11~~-|------------|-9-11-9-----|------------|----13------|   
G|-12~~-------|10~~---12-13|---------10-|13-12--10---|12~---12----|   
D|------------|------------|------------|----------10|--------13--|   
A|------------|------------|------------|------------|------------|   
E|------------|------------|------------|------------|------------|   
   
e|------------|------------|------------|------------|------------|   
B|------------|------------|-------10---|------15~~~-|----15--13--|   
G|----12~~~-12|-10---------|11--11------|--14--------|------------|   
D|15----------|----13-12-13|----------13|------------|------------|   
A|------------|------------|------------|------------|------------|   
E|------------|------------|------------|------------|------------|   
   
e|------------|------------|------------|------------|------------|   
B|------------|14-14-11----|-13---------|------------|-------13---|   
G|-15-14-15~~-|---------10-|------15-13-|12-13~~-----|-13-15----15|   
D|------------|------------|------------|------------|------------|   
A|------------|------------|------------|------------|------------|   
E|------------|------------|------------|------------|------------|   
   
e|------------|------------|------------|------------|------------|   
B|------------|----13-15-16|----13-15-13|-16~~~------|-15~-13-----|   
G|-12---------|-12---------|-12---------|------------|-------15-14|   
D|----15~~----|------------|------------|------------|------------|   
A|------------|------------|------------|------------|------------|   
E|------------|------------|------------|------------|------------|   
   
e|------------|------------|------------|------------|------------|   
B|------------|------------|-15~--13----|------------|------------|   
G|-14~~----14-|15-14--17~~-|---------15-|14-12~~-----|-pb18r17--18|   
D|------------|------------|------------|------------|------------|   
A|------------|------------|------------|------------|------------|   
E|------------|------------|------------|------------|------------|   
   
e|------------|------------|------------|------------|16-15--13---|   
B|------------|-------18---|----18------|20b21r20--18|----------13|   
G|17--15------|-17~------17|-------17---|------------|------------|   
D|-------15~~-|------------|------------|------------|------------|   
A|------------|------------|------------|------------|------------|   
E|------------|------------|------------|------------|------------|   
   
e|------------|------------|------------|------------|------------|   
B|---16-18-16-|13~~-12b13--|18-16--18-16|-------18-16|------------|   
G|12----------|------------|------------|19-17-------|19-17~~-----|   
D|------------|------------|------------|------------|------------|   
A|------------|------------|------------|------------|------------|   
E|------------|------------|------------|------------|------------|   
   
e|------------|------------|------------|------------|------------|   
B|------------|19----------|-19---------|---17----19-|------------|   
G|-19~~~------|--19--------|----19~~----|19----19----|19-17-------|   
D|------------|----19~-----|------------|------------|------20-19-|   
A|------------|------------|------------|------------|------------|   
E|------------|------------|------------|------------|------------|   
   
              Fadeout begins...   
e|------------|------------|------------|------------|------------|   
B|------------|------------|------------|------------|------------|   
G|------------|14~~-----14-|------------|------------|------------|   
D|-17~~-------|------17----|-17-16-14-16|---17~~-----|16-14-16-14-|   
A|------------|------------|------------|------------|------------|   
E|------------|------------|------------|------------|------------|   
   
e|------------|------------|------------|------------|------------|   
B|------------|------------|------------|------------|------------|   
G|------------|------------|------------|------------|------------|   
D|16-17-16-14-|------------|--14--------|------------|------------|   
A|------------|17-15--17~~-|17---15-17~-|-17-15-14---|14--17~-----|   
E|------------|------------|------------|----------17|------------|   
   
e|------------|------------|------------|------------|------------|   
B|------------|------------|------------|------------|------------|   
G|------------|------------|------------|------------|------------|   
D|------------|------------|16~~------16|-------16~~-|------------|   
A|17-16-17-19-|17-16-17-19-|-------19---|-17-19------|19-17-16-17-|   
E|------------|------------|------------|------------|------------|   
   
e|------------|------------|------------|------------|------------|   
B|------------|------------|------------|------------|------------|   
G|------------|------------|------------|------------|------------|   
D|17~~--------|------------|------15~~--|------------|------------|   
A|------------|17-19-15-17-|16-15-------|14----14----|------------|   
E|------------|------------|------------|---17----15~|-14-17-15-12|   
   
e|------------|   
B|------------|   
G|------------|   
D|------------|   
A|-14~~-------|   
E|------------|  

---------------- 
Legend   
  
 h  = hammer-on   
 p  = pull-off   
 b  = bend   
 r  = bend release   
 /  = slide up/down   
<5> = natural harmonic   
{5} = artifical harmonic   
 ~  = vibrato   
 tr = trill 
  

top 5 | pink floyd
top rock clássico
Outras músicas do artista letras do(a) Pink Floyd
3.
Time
Top cifras »Top artistas »
Petaxxon Comunicação Online
Cifras.com.br - Melhor e mais completo site de cifras e tablaturas do Brasil
Mais de 1 milhão de acordes de músicas cadastradas desde 2003
As informações contidas no nosso site são colaborações de seus usuários e podem conter erros, sendo assim, não nos responsabilizamos sobre nenhuma destas.
close
menos
mais
close
Cor dos acordes:

Cor da letra:

 

save
close
close
 
redimensionar