Cifras e Tablaturas
Piratas do Caribe

Piratas do Caribe

He Is A Pirate

Cifras Cancelar Versão de Impressão
cifras

Piratas do Caribe - He Is A Pirate

fixar na tela  
Exibindo: vídeo-aula ver clipes redimensionar
  
D5(9)         Bb        C           D5(9) 
-------------0-1-1---1-3-0-0-------------- 
---1-3-3---3---3-3-------1-1---3-1-1h3---- 
-2---2-2-------3-3-------0-0-------0h2---- 
-----0---0-------------------------0--0-0- 
---------------1---1-----3---3------------ 
------------------------------------------ 

2ª parte: 

 D5(9)         F         C           D5(9) 
-------------0-1-1---1-3-0-0-------------- 
---1-3-3---3---1-1-------1-1---3-1-1h3---- 
-2---2-2-------2-2-------0-0-------0h2---- 
-----0---0-------------------------0--0-0- 
-------------------------3---3------------ 
---------------3---3---------------------- 

3ª parte: 

 D5(9)         Gm 
-------------1-3-3---3-5-6-6---5-3-5------ 
---1-3-3---3---3-3-------------------3---- 
-2---2-2-------3-3-------------------2---- 
-----0---0-------------------------0---0-- 
-------------------------0---0------------ 
---------------5---5---------------------- 

4ª parte: 
                       A 
---0-1-1---3-5-------1-0-0-1-0------------ 
-3-------------3---3---2-----2------------ 
-----------------------2-----2------------ 
-----------------------2-----2------------ 
-----1---1---0---0-----0-----0------------ 
------------------------------------------ 

Repetição da Primeira Parte: 

1ª parte: 

 D5(9)         Bb        C           D5(9) 
-------------0-1-1---1-3-0-0-------------- 
---1-3-3---3---3-3-------1-1---3-1-1h3---- 
-2---2-2-------3-3-------0-0-------0h2---- 
-----0---0-------------------------0--0-0- 
---------------1---1-----3---3------------ 
------------------------------------------ 

2ª parte: 

 D5(9)         F         C           D5(9) 
-------------0-1-1---1-3-0-0-------------- 
---1-3-3---3---1-1-------1-1---3-1-1h3---- 
-2---2-2-------2-2-------0-0-------0h2---- 
-----0---0-------------------------0--0-0- 
-------------------------3---3------------ 
---------------3---3---------------------- 

3ª parte: 

 D5(9)         Gm 
-------------1-3-3---3-5-6-6---5-3-5------ 
---1-3-3---3---3-3-------------------3---- 
-2---2-2-------3-3-------------------2---- 
-----0---0-------------------------0---0-- 
-------------------------0---0------------ 
---------------5---5---------------------- 

4ª parte: 

---0-1-1---3-5-------1-0-0---------------- 
-3-------------3---3----------3-1--------- 
------------------------------------------ 
------------------------------------------ 
-----1---1---0---0-----0---0-------------- 
------------------------------------------ 

5ª parte: 

D5(9) C Bb     A      Bb/A     A   Bb/A A 
------0-1-1-3--5-------6-------0-0--1---0- 
-3-3--1-3-3----2-5-2---3-6-3---2-2--3---2- 
-2-2--0-3-3----2-----2-3-----3-2-2--3---2- 
---------------2-------3------------------ 
-0-0--3-1-1----0-------0-------0-0--0---0- 
------------------------------------------ 

Ponte: 

1ª parte: 

 Dm     Bb/D  Dm   C5      D5 
-5-5-5---6----5----3-3-3-3-5-------------- 
-6-6-6---6----6----1-1-1-1-3-------------- 
-7-7-7---7----7--------------------------- 
-0-0-0---0----0—---3-3-3-3-5-------------- 
------------------------------------------ 
------------------------------------------ 

2ª parte: 

 Dm     Bb/D  Dm    G5  F5  E5  D5 
-5-5-5---6----5--------------------------- 
-6-6-6---6----6--------------------------- 
-7-7-7---7----7--------------------------- 
-0-0-0---0----0-----5---3---2---0--------- 
--------------------5---3---2---0--------- 
--------------------5---3---2---0--------- 

Segunda Parte: 

1ª parte: 

     Dm 
---0-1---3-5--3-1-0--1-3-5-3-------------- 
-3---------------------------------------- 
-------2--------0------0-----0------------ 
-----0------------------------------------ 
--------------3------------3-------------- 
---------------------3-------------------- 

2ª parte: 

                     D5(9) 
-1-3-5---3-1--0-1-0------0---------------- 
---------------------3-----1-3------------ 
-------0---------------2-------2---------- 
-----0---------------0-------0------------ 
--------------0--------------------------- 
------------------------------------------ 

3ª parte: 

     Dm                  Bb 
---0-1---0-1-3-1-3-5-3-1------------------ 
-3-----------------------3---------------- 
-------2-------0---------3---------------- 
-----0---------------------3-------------- 
-------------3-----0-----1---------------- 
------------------------------------------ 

4ª parte: 
           Gm 
---0-1-3-5-6---3-1---3-0------------------ 
-3-----------3-----------3---------------- 
-------------3-----0-------2-------------- 
-----------------0-------0---------------- 
------------------------------------------ 
-----------5------------------------------ 

Terceira Parte: 

1ª parte: 

     Dm   Bb/F   Dm 
---0-5--x--6--x--5-5---5-3---------------- 
-3---6--x--3--x--6-6---------------------- 
-----7--x--3--x--7-7---0------------------ 
-----0--x--3--x--0---0-------------------- 
--------x-----x--------3------------------ 
--------x-----x--------------------------- 

2ª parte: 

    Gm    Dm 
-x--3--x--1--x-0-1-0---------------------- 
-x--3--x--3--x-------3-------------------- 
-x--3--x--2--x---------2------------------ 
-x--5--x--0--x-------0-------------------- 
-x--5--x-----x-0-------------------------- 
-x-—5-—x-----x---------------------------- 

3ª parte: 

     Dm   Bb/F   Dm 
---0-5--x--6--x--5-5---5-3---------------- 
-3---6--x--3--x--6-6---------------------- 
-----7--x--3--x--7-7---0------------------ 
-----0--x--3--x--0---0-------------------- 
--------x-----x--------3------------------ 
--------x-----x--------------------------- 

4ª parte: 

    Gm    Dm         D5 
-x--3--x--1--x-0-1-0---------------------- 
-x--3--x--3--x-------3-------------------- 
-x--3--x--2--x-------2-------------------- 
-x--3--x--0--x-------0-------------------- 
-x--5--x-----x-0-----0-------------------- 
-x--5--x-----x-------0-------------------- 
  

cifra enviadasem correções
enviado porenviada por:deivcavalcanti
top 5 | piratas do caribe
top rock'n roll
Outras músicas do artista letras do(a) Piratas do Caribe
Top cifras »Top artistas »
Petaxxon Comunicação Online
Cifras.com.br - Melhor e mais completo site de cifras e tablaturas do Brasil
Mais de 1 milhão de acordes de músicas cadastradas desde 2003
As informações contidas no nosso site são colaborações de seus usuários e podem conter erros, sendo assim, não nos responsabilizamos sobre nenhuma destas.
close
menos
mais
close
Cor dos acordes:

Cor da letra:

 

save
close
close
 
redimensionar