Cifras e Tablaturas
Pixinguinha

Pixinguinha

Lamentos

Cifras Cancelar Versão de Impressão
cifras

Pixinguinha - Lamentos

fixar na tela  
Exibindo: vídeo-aula ver clipes redimensionar
  
1- 

---------------------------------------------------------------- 
-7--5------------------3---------------------------------------- 
----4--4-----4-------2----2-----2------------------------------- 
-------4-----4-----0------0-----0------------------------------- 
----5-----5----------------------------------------------------- 
----------------2------------2---------------------------------- 


2- 

---------------------------------------------------------------- 
-------2-----------------0-------------------------------------- 
-------------3-----3-----------------3---------2---------------- 
-3h4---------2-----2--2--------2------------0------------------- 
---------------------------------------------------------------- 
----------3-----3-----------3-----3-----2----------------------- 


3-  

---------------------------------------------------------------- 
----2--3--4--5--7-----8--------------7-------------------------- 
-4-----------------------8-----8--------8----------------------- 
-------------------------7-----7--------7----------------------- 
---------------------------------------------------------------- 
-------------------7--------7-----7----------------------------- 


4- 

---------------------------------------------------------------- 
-8-----7--5--8--------------5-------7--------------------------- 
----------------------5---------7------------------------------- 
--------------------------------7------------------------------- 
---------------------------------------------------------------- 
----0-----------7--6-----7-------------------------------------- 


5- 

----------------------------------4--2---------5---------------- 
-3-----2-----------2--7--4--4--6--2----------7----8--4-----7---- 
----------3------3-------4--4-----3--------5-------------------- 
----------1----2---------4--4----------------------------------- 
----------------------------4-----------6----------------------- 
----2--------3-----------4--------2---------------------0------- 

---------------------------------------------------------------- 
-5h7-----5--------------3--------------------------------------- 
------------6--------2------------------------------------------ 
---------------7--0--------------------------------------------- 
------0--------------------------------------------------------- 
---------------------------------------------------------------- 


6- 

---------------2--3-----5-----3--------------------------------- 
------2--3--5--------------3--------7-------5--3--------3--0---- 
-3h4-----------------------4-----------6----------2--4-----0---- 
---------------------------------------5-------------------0---- 
------------------------------------------0--------------------- 
---------------------3-----------6-------------------------3---- 

-------0-------------------------------------------------------- 
-3--2-----0----------------------------------------------------- 
----0-----3----------------------------------------------------- 
----2-----2----------------------------------------------------- 
----0----------------------------------------------------------- 
----------2----------------------------------------------------- 


7- 

---------------------------------------------------------------- 
---------------------------------------------------------------- 
-------4-------------------------------------------------------- 
-7--5-----7--4-----------4-------------------------------------- 
----------------5--7--8--------2-------------------------------- 
----------------------------2----------------------------------- 


8- 

-------0--2--3--2p0-----0--2--3--2p0-----0-----2--3--2p0-----0-- 
----3----------------3----------------3-------------------3----- 
---------------------------------------------------------------- 
---------------------------------------------------------------- 
-2-------------------1----------------------0------------------- 
---------------------------------------------------------------- 

----2----------------------------------------------------------- 
---------------------------------------------------------------- 
---------------------------------------------------------------- 
---------------------------------------------------------------- 
---------------------------------------------------------------- 
-4-------------------------------------------------------------- 


9- 

-----------0---------------------------------------------------- 
-4-------0----------0--1--0-----------0--1--0-----------0--1---- 
-2-----0------0--2-----------2--0--2-----------2--0--2---------- 
-4------------------------------1-----------------0------------- 
-2-------------------------------------------------------------- 
----0----------------------------------------------------------- 

---------------------------------------------------------------- 
----0-----------0----------------------------------------------- 
-------2--0--2-------------------------------------------------- 
---------------------------------------------------------------- 
-4-------------------------------------------------------------- 
---------------------------------------------------------------- 


10- 

----------------------------------10-------9------------------7- 
---------------------2--5------11-----11------------7-------7--- 
------------------3----------9--------------------7---7---7----- 
----------4--3h4--------------------------------7--------------- 
---------------------------9------------------9----------------- 
-0--1--2---------------------------------7--------------7------- 


11- 

-------7------------------------7------------------------------- 
-----8-------8--8-----8-------6------6---------0-------0-------- 
---0------0-----------------7------7---7-----0-------0---------- 
-0-----------------0-----6----------------4-------3------------- 
---------------------------------------------------------------- 
---------------------------------------------------------------- 

---------------------------------------------------------------- 
------------0-------0-----0------------------------------------- 
----0-----0-------0--------------------------------------------- 
-2-------------------------------------------------------------- 
-------5-------4-------------2---------------------------------- 
-----------------------2---------------------------------------- 


12- 

-7--7--5--------7--10--------9--10------------------------------ 
-8--6--7------7-----8------8-----7--2--------------------------- 
-0--7--7----8-------7----9-------7--0--------------------------- 
-0--6--0--7----------------------0--2--------------------------- 
--------------------7--0------------0--------------------------- 
---------------------------------------------------------------- 
  

top 5 | pixinguinha
top velha guarda
Outras músicas do artista letras do(a) Pixinguinha
4.
Rosa
Top cifras »Top artistas »
Petaxxon Comunicação Online
Cifras.com.br - Melhor e mais completo site de cifras e tablaturas do Brasil
Mais de 1 milhão de acordes de músicas cadastradas desde 2003
As informações contidas no nosso site são colaborações de seus usuários e podem conter erros, sendo assim, não nos responsabilizamos sobre nenhuma destas.
close
menos
mais
close
Cor dos acordes:

Cor da letra:

 

save
close
close
 
redimensionar