Cifras e Tablaturas
Pixinguinha

Pixinguinha

Rosa

Ano: 1997
Album : Pixinguinha 100 Anos

Cifras Cancelar Versão de Impressão
cifras

Pixinguinha - Rosa

fixar na tela  
Exibindo: vídeo-aula ver clipes redimensionar

Tom:

D

ver outros tons
  1° Parte 

E--3-----------------------5------------------------------------- 
B----1--1--------1-------5---8--5-------0--------0--1--2--3------ 
G-------0----0-----------5--------5-------0--2------------0------ 
D-------2---2---2------------------------------------------------ 
A-------3-----------2--0----------------------------------------- 
E---------------------------------------3-----------------1------ 

E-3/8-------------------------7---5------------------------------ 
B------------5----6-----5---------5------8--5--8-----3----------- 
G--------5-----5--7--7--5---------5---------5--------0----------- 
D----------------------------------------------------3----------- 
A---------------------------------0------------------------------ 
E------0---------------------------------------------3----------- 


E---------0--1--1--0--------------------------------------------- 
B-0--1--3----------0--------------------------------------------- 
G------------------1--------------------------------------------- 
D------------------0--------------------------------------------- 
A------------------0--------------------------------------------- 
E------------------0--------------------------------------------- 


E----4------------4----------5-----5--8--5---12------------------ 
B-7------7--5--7------5------5------------------13--12----------- 
G---------------------------------------------------------------- 
D---------------------------------------------------------------- 
A-------------------------0-------------------------------------- 
E---------------------------------------------------------------- 


E-5----------5------5---12---10----------------5--------3-------- 
B----8--7----6-----6----10------13-10--------------3----4-------- 
G------------7----7-----10------------10---------4------4-------- 
D------------0---------------------------12hm-------------------- 
A---------------------------------------------------------------- 
E---------------------------------------------------------------- 


E--12---10------------------------------------------------------- 
B--10------13-10------------------------------------------------- 
G--10------------10---------------------------------------------- 
D---0--------------12hm------------------------------------------ 
A---------------------------------------------------------------- 
E---------------------------------------------------------------- 


E--3-----------------------5------------------------------------- 
B----1--1--------1-------5---8--5-------0--------0--1--2--3------ 
G-------0----0-----------5--------5-------0--2------------0------ 
D-------2---2---2------------------------------------------------ 
A-------3-----------2--0----------------------------------------- 
E---------------------------------------3-----------------1------ 


E--8---6------------------------------------------10--8--7--8-13- 
B-----------3-----4-----5--------5--6---8---9--10---------------- 
G--------3-----3-----3-----5--7-------------7---9---------------- 
D-------------------------------------------9---7---------------- 
A------3------------------------------------8---8---------------- 
E---------------------------------------------------------------- 


E----------------------8------10-----12-----10-----8----7----5--- 
B--9--------------9---10-10--12-12--13-13--12-12--10-10-----5---- 
G-------12---10-------------------------------------------6------ 
D----10----10--10------------------------------------------------ 
A--8--------------8------------------------------------0--------- 
E----------------------------------0----------------------------- 


E-------------------------5--4--3-----------------3-5-3-2h3--8--- 
B--5--5-----------5--6----------4-----0--5--3---1------------5--- 
G-----------7-6-7---------------4---------------0------------5--- 
D----0--------------------------3---------------2---------------- 
A-----------------------------------------------3---------------- 
E---------------------------------------------------------------- 

2° Parte 

E-0-----------------5--7--8--7--5--7----------------------------- 
B------1-----1---1-----------------6----------------------------- 
G------4--4----4-------------------7----------------------------- 
D------2---------------------------0----------------------------- 
A------0--------------------------------------------------------- 
E---------------------------------------------------------------- 


E--7--6--7--8--7---10--8--7--8--7-------------------------------- 
B-----------------------------------10---9----------------------- 
G----------------------------------------7----------------------- 
D----------------------------------------9----------------------- 
A----------------------------------------9----------------------- 
E----------------------------------------0----------------------- 


E--5--7--8--7--5--0----------------0----------------------------- 
B-----------------1----3--1--3-----1----------------------------- 
G-----------------0----------------2----------------------------- 
D-----------------2----------------2----------------------------- 
A-----------------3----------------3----------------------------- 
E---------------------------------------------------------------- 


E--5----5---------------------4--5h4--5--6----5------------------ 
B--------------8----8-----7----------------------6--------------- 
G-----------7----7-----7--7-------------------------7------------ 
D--------------------------------------------0------------------- 
A-------7-----------------0-------------------------------------- 
E---------------------------------------------------------------- 


E-7---7-----------------7h8-7-6h7--12-7-10-8-7-----------------0- 
B-----9-----9----9-----------------------------10-9\5-8-6-5----1- 
G-----7---7----7----7---------------------------------------7--4- 
D--------------------------------------------------------------2- 
A--------------------------------------------------------------0- 
E-----0----------------0----------------------------------------- 


E----8--7--6--7--8--7---13--12--10--8--7------------------------- 
B-----------------------------------------10----9---------------- 
G-----------------------------------------------7---------------- 
D-0---------------------------------------------9---------------- 
A-----------------------------------------------7---------------- 
E---------------------------------------------0------------------ 


E--7--8--7--6--7--10--9--8--9--12--9---6--5---------------------- 
B--------------------------------------5--5---------------------- 
G--------------------------------------6--6---------------------- 
D---------------------------------------------------------------- 
A----------------0---------------------0------------------------- 
E---------------------------------------------------------------- 


E----7-------8--7--8--7---5---------7--5------------------------- 
B---------6-----------5--------5--------------------------------- 
G------7-------7------5------5----------------------------------- 
D--0------------------5------------------------------------------ 
A---------------------0------------------------------------------ 
E---------------------------------------------------------------- 


E--7--5--4--3--4--7--4---------------------5---0--1p0-----0--3--- 
B------------------------6--5--4--5--6--5--5-----------4-----4--- 
G------------------------------------------5-----------------3--- 
D---------------------------------------------------------------- 
A------------------------------------------0--------------------- 
E-----0------------------------------------------------------3--- 


3° Parte 

E--3-----------------------5------------------------------------- 
B----1--1--------1-------5---8--5-------0--------0--1--2--3------ 
G-------0----0-----------5--------5-------0--2------------0------ 
D-------2---2---2------------------------------------------------ 
A-------3-----------2--0----------------------------------------- 
E---------------------------------------3-----------------1------ 


E--8---6------------------------------------------10--8--7--8-13- 
B-----------3-----4-----5--------5--6---8---9--10---------------- 
G--------3-----3-----3-----5--7-------------7---9---------------- 
D-------------------------------------------9---7---------------- 
A------3------------------------------------8---8---------------- 
E---------------------------------------------------------------- 


E-------------------------8-------10-----12------10----8--7----5- 
B----9----------------9--10-10/12---12-13--13--12--12-10------5-- 
G---------12---10--------------------------------------------6--- 
D------10----10--10---------------------------------------------- 
A--8----------------8-----------------------------------0-------- 
E-------------------------------------0-------------------------- 


E-------------------------5--4--3-----------------3-5-3-2h3--8--- 
B--5--5-----------5--6----------4-----0--5--3---1------------5--- 
G-----------7-6-7---------------4---------------0------------5--- 
D----0--------------------------3---------------2---------------- 
A-----------------------------------------------3---------------- 
E---------------------------------------------------------------- 



Acordes: 

F7M |  Fm7 |  Em7 |  A7 | Dm7 | Gsus  | C7M 
  

cifra enviadasem correções
enviado porenviada por:Teusalves
Tom: E ver outros instrumentos
Rosa Tom CC(um tom abaixo)
Rosa Tom C#C#(meio tom abaixo)
Rosa Tom DD(tom original)
Rosa Tom D#D#(meio tom acima)
Rosa Tom EE(um tom acima)
Subir 1 tomSubir 1/2Descer 1 tomDescer 1/2
top 5 | pixinguinha
top velha guarda
Outras músicas do artista letras do(a) Pixinguinha
Top cifras »Top artistas »
Petaxxon Comunicação Online
Cifras.com.br - Melhor e mais completo site de cifras e tablaturas do Brasil
Mais de 1 milhão de acordes de músicas cadastradas desde 2003
As informações contidas no nosso site são colaborações de seus usuários e podem conter erros, sendo assim, não nos responsabilizamos sobre nenhuma destas.
close
menos
mais
close
Cor dos acordes:

Cor da letra:

 

save
close
close
 
redimensionar