Cifras e Tablaturas
Pixinguinha

Pixinguinha

Urubu Malandro Tablatura Verificada

Compositor : (João de Barro Louro)

Cifras Cancelar Versão de Impressão
cifras

Pixinguinha - Urubu Malandro

fixar na tela  
Exibindo: vídeo-aula ver clipes redimensionar
  
Parte A:  
                
               D       B7      Em             A7              D     
d|-------------2-0-0--------------------------0------------------|   
B|-----3-3-3-2-------2-0--------------2-2-2-0---2-2-0------------|   
G|---2-------------------2-0--------0-----------------2-0--------|   
D|-4-------------------------4-2--2-----------------------4-2-0--|   

Parte B: 

               A7      D              A7      D  
d|---------------------------------------------------------------|   
B|-3-3-3-3----------------3-3-3-3--------------------------------|   
G|---------2-----2-1-0------------2-----2-1-0--------------------|   
D|-----------4-2-------4------------4-2-------4------------------|   

Repetir A e B:  
                 A7              D  
d|---------------------------------------------------------------|   
B|-------0-------2-------0-------3-------------------------------|   
G|-2-2-2---2-2-2---2-2-2---2-2-2---------------------------------|   
D|---------------------------------------------------------------|   

Final:  

d|---------------------------------------------------------------|   
B|---------0-1-2-3-----------------------------------------------|   
G|-2-1-2-3-------------------------------------------------------|   
D|---------------------------------------------------------------|  

  

cifra enviadacorrigido por:Acelot
enviado porenviada por:Acelot
top 5 | pixinguinha
top velha guarda
Outras músicas do artista letras do(a) Pixinguinha
5.
Rosa
Top cifras »Top artistas »
Petaxxon Comunicação Online
Cifras.com.br - Melhor e mais completo site de cifras e tablaturas do Brasil
Mais de 1 milhão de acordes de músicas cadastradas desde 2003
As informações contidas no nosso site são colaborações de seus usuários e podem conter erros, sendo assim, não nos responsabilizamos sobre nenhuma destas.
close
menos
mais
close
Cor dos acordes:

Cor da letra:

 

save
close
close
 
redimensionar