Cifras e Tablaturas
Plebe Rude

Plebe Rude

Até Quando Esperar Tablatura Verificada

Compositor : (Andre X / Gutje / Philippe Seabra)

Cifras Cancelar Versão de Impressão
cifras

Plebe Rude - Até Quando Esperar

fixar na tela  
Exibindo: vídeo-aula ver clipes redimensionar
  
Intro: D5 G5 C5 G5  

e|-------------------------------|  
B|-------------------------------|  
G|-------------------------------|  
D|-------------------------------|  
A|-0----2--3/7--5--0--3--5--0----|  
D|-----------------------------0-|  

Verse: D F G  

e|-------0---------------0---------|  
B|---3-------3-------3------3---3--|  
G|-----2---------2-----2------2----|  
D|-0-------------------------------|  
A|---------------------------------|  
E|---------------------------------| (2x)  

e|-------0----------0----|  
B|-----6---6------8---8--|  
G|---5----------7--------|  
D|-0----------0----------|  
A|-----------------------|  
E|-----------------------|  

e|-------0---------------0---------|  
B|---3-------3-------3------3---3--|  
G|-----2---------2-----2------2----|  
D|-0-------------------------------|  
A|---------------------------------|  
E|---------------------------------|   

Pré-Refrão:  

e|-------------|------------|------------|---------------------|  
B|-------0-----|-------0----|-------0----|-------0-----8-------|  
G|----5-----5--|----5-----5-|----5-----5-|----5-----5-----5--7-|  
D|-7-----------|-5----------|-3----------|-7-------------------|  
A|-------------|------------|------------|---------------------|  
E|-------------|------------|------------|---------------------| (2x)  
           (2x)        (2x)           (2x)  



Refrão: F5 G5 D5  



verse 2: D F G  

e|-------0---------------0---------|  
B|---3-------3-------3------3---3--|  
G|-----2---------2-----2------2----|  
D|-0-------------------------------|  
A|---------------------------------|  
E|---------------------------------| (2x)  

e|-------0----------0----|  
B|-----6---6------8---8--|  
G|---5----------7--------|  
D|-0----------0----------|  
A|-----------------------|  
E|-----------------------|  

e|-------0---------------0---------|  
B|---3-------3-------3------3---3--|  
G|-----2---------2-----2------2----|  
D|-0-------------------------------|  
A|---------------------------------|  
E|---------------------------------|  

F5 G5 D5  

Pré-Refrão:  

e|-------------|------------|------------|---------------------|  
B|-------0-----|-------0----|-------0----|-------0-----8-------|  
G|----5-----5--|----5-----5-|----5-----5-|----5-----5-----5--7-|  
D|-7-----------|-5----------|-3----------|-7-------------------|  
A|-------------|------------|------------|---------------------|  
E|-------------|------------|------------|---------------------| (2x)  
           (2x)        (2x)           (2x)  


Refrão: F5 G5 (3x) D5   


Interlúdio: D C G  


Intro: D G5 C5 G5  

e|-------------------------------|  
B|-------------------------------|  
G|-------------------------------|  
D|-------------------------------|  
A|-0----2--3/7--5--0--3--5--0----|  
D|-----------------------------0-|  

Verse: D F G  

e|-------0---------------0---------|  
B|---3-------3-------3------3---3--|  
G|-----2---------2-----2------2----|  
D|-0-------------------------------|  
A|---------------------------------|  
E|---------------------------------| (2x)  

e|-------0----------0----|  
B|-----6---6------8---8--|  
G|---5----------7--------|  
D|-0----------0----------|  
A|-----------------------|  
E|-----------------------|  

e|-------0---------------0---------|  
B|---3-------3-------3------3---3--|  
G|-----2---------2-----2------2----|  
D|-0-------------------------------|  
A|---------------------------------|  
E|---------------------------------|   

Solo: Am G F D  

e|----------------------------------------------------------|  
B|------------------------12-12b13-12b13r12-8--/13-13-12-12-|  
G|---------------------------------------------/14-14-12-12-|  
D|----------------5-7HA~~-----------------------------------|  
A|----------5-7-8-------------------------------------------|  
E|----5-7-8-------------------------------------------------|  

e|--------------|  
B|-10-10-8-5-10-|  
G|-10-10-9-5-11-|  
D|--------------|  
A|--------------|  
E|--------------|  

Pré-Refrão:  

e|-------------|------------|------------|---------------------|  
B|-------0-----|-------0----|-------0----|-------0-----8-------|  
G|----5-----5--|----5-----5-|----5-----5-|----5-----5-----5--7-|  
D|-7-----------|-5----------|-3----------|-7-------------------|  
A|-------------|------------|------------|---------------------|  
E|-------------|------------|------------|---------------------| (2x)  
           (2x)        (2x)           (2x)  


Refrão: F5 G5 (3x) D5   

Final: D5 C5 D5  

  

cifra enviadacorrigido por:Acelot
enviado porenviada por:Acelot
top 5 | plebe rude
top rock'n roll
Outras músicas do artista letras do(a) Plebe Rude
3.
48
Top cifras »Top artistas »
Petaxxon Comunicação Online
Cifras.com.br - Melhor e mais completo site de cifras e tablaturas do Brasil
Mais de 1 milhão de acordes de músicas cadastradas desde 2003
As informações contidas no nosso site são colaborações de seus usuários e podem conter erros, sendo assim, não nos responsabilizamos sobre nenhuma destas.
close
menos
mais
close
Cor dos acordes:

Cor da letra:

 

save
close
close
 
redimensionar